Evanescence - Whisper Chords & Tabs

 

Whisper Chords & Tabs

Evanescence Chords & Tabs

Version: 7 Type: Tab 0 ratings
1 star 2 stars 3 stars 4 stars 5 stars
comments

Whisper Tab

Artist: Evanescence
Song: Whisper (Solo only)

I've seen Whisper solo tabs on this site, and they're all WRONG. =) Well, they're all
good, but here's the 100% correct version.

|-------------------------------------------------------------|
|-------------------------------------------------------------|
|-14-14-14\12-14-15-15-15\14-14\12-12-12-12\10-12-14-14-14-14-|
|-------------------------------------------------------------|
|-12-12-12\10-12-13-13-13\12-12\10-10-10-10\8--10-12-12-12-12-|
|-------------------------------------------------------------|

|----------------------------------------------|
|----------------------------------------------|
|-14\12-12\10-10-10-10-9-10----12-12-12-10-9---|
|---------------------------10---------------x-|
|-12\10-12\8--8--8--8--7-8--8--10-10-10-8--7-x-|
|----------------------------------------------|
[ Tab from: http://www.guitartabs.cc/tabs/e/evanescence/whisper_tab_ver_7.html ]
|-------------------------------|--------------------------|
|-------------------------------|--------------------------|
|-10-9-10-9-10-9-10-9-10-10-9-9-|-7-7-7-9-10-12-12-12-10-9-|
|-------------------------------|--------------------------|
|-8--7-8--7-8--7-8--7-8--8--7-7-|-5-5-5-7-8--10-10-10-8--7-|
|-------------------------------|--------------------------|

|-----------------------------------------------------------|
|-----------------------------------------------------------|
|-/14-14-14-15-14-17-17-17-15-14-10-10-10-12-14-9-9-9-10-12-|
|-----------------------------------------------------------|
|-/12-12-12-13-12-15-15-15-13-12-8--8--8--10-12-7-7-7-8--10-|
|-----------------------------------------------------------|

~ ~ ~ ~ ~ ~ ~ ~ ~ ~ ~ ~
|----------------------------------|
|----------------------------------|
|-14-14-14-14-14-14----------------|
|----------------------------------|
|-12-12-12-12-12-12----------------|
|----------------------------------|
~ ~ ~ ~ ~ ~ ~ ~ ~ ~ ~ ~

That's it.. Pretty simple.
Comments