Evanescence - Whisper Chords & Tabs

 

Whisper Chords & Tabs

Evanescence Chords & Tabs

Version: 6 Type: Tab 0 ratings
1 star 2 stars 3 stars 4 stars 5 stars
comments

Whisper Tab

-------------------------------------------------------------------------------
			     Whisper (Solo) - Evanescence
-------------------------------------------------------------------------------
Tabbed by: Static_Mind
Email:

Tuning: Drop-D for the intro of the actual song, but you don't use the low-e string for 
solo so it doesn't matter.

I saw other tabs for this solo which were right, but I'm including an easier way to play 
Same solo as the other tabs, but you don't have to go all the way up and down the neck, 
hand can stay in one spot and play more than one string.

v=let note ring
/=slide
h=hammer on
^=bend

e|---------------------------------------------------------------------------|
B|---------------------------------------------------------------------------|
G|---------------------------------------------------------------------------|
D|---------------------------------------------------------------------------|
A|-5v---------7v---------/10v---------8v-------------------------------------|
D|---------------------------------------------------------------------------|
[ Tab from: http://www.guitartabs.cc/tabs/e/evanescence/whisper_tab_ver_6.html ]
e|-----------------------------------------------------------------------------|
B|-----------------------------------------------------------------------------|
G|-----------------------------------------------------------------------------|
D|----9-9-9-7-9h10-10-10-9-7-7-7-7------7-9-9-9-7-------------------7-7--------|
A|-/9-------------------------------10-10------------10-10-10-9-9-10-----------|
D|-----------------------------------------------------------------------------|

e|-----------------------------------------------------------------------------|
B|-----------------------------------------------------------------------------|
G|-----------------------------------------------------------------------------|
D|----------------------------------------------------7-7-7-7------------------|
A|-10-9-9-10-9--9-10-9-9-10-9-9-10-9-9-7-7-7-7-9-10---------10-9-9-------------|
D|-----------------------------------------------------------------------------|

e|-----------------------------------------------------------------------------|
B|-----------------------------------------------------------------------------|
G|---------------7-7-7---------------------------------------------------------|
D|--9-9-9-10-9-9-------10-9-9---------7-10-10----------7-7-9^9-----------------|
A|-----------------------------10-10-10--------9-9-9-10------------------------|
D|-----------------------------------------------------------------------------|
Comments