Evanescence - Where Will You Go Chords & Tabs

 

Where Will You Go Chords & Tabs

Evanescence Chords & Tabs

Version: 2 Type: Tab 0 ratings
1 star 2 stars 3 stars 4 stars 5 stars
comments

Where Will You Go Tab

   
I Think This Is Right
Tabbed By: Jack Negro
Email: www.shortman_13@hotmail.com
Post Any Comments Please

I Play This Song With Capo On 3rd Fret
DROP D

INTRO:
E----00---------00-----------11-------------------11-00----------00---------|
B-------11-00-11----11-00-11-----11-00-11-33-11-00-----11-00-11----11-00----|
G---------------------------------------------------------------------------|
D---------------------------------------------------------------------------|
A---------------------------------------------------------------------------|
D---------------------------------------------------------------------------|

E------11-------------------------------------------------------------------|
B----11---11-00-11-33-11-00-------------------------------------------------|
G---------------------------2~----------------------------------------------|
D---------------------------------------------------------------------------|
A---------------------------------------------------------------------------|
D---------------------------------------------------------------------------|

VERSE:
The Organ Part

E---------------------------------------------------------------------------|
B---------------------------------------------------------------------------|
G----2---2-2-2--------------------------------------------------------------|
D----2---0-2-3---2h3p2-----2--2-2-2-----------------------------------------|
A----0---0-0-0--0----------0--3-2-3-0---------------------------------------|
D-----------------------------------3---------------------------------------|

CHORUS:
Don't Forget To Have The Capo On
[ Tab from: http://www.guitartabs.cc/tabs/e/evanescence/where_will_you_go_tab_ver_2.html ]
E---------------------------------------------------------------------------|
B---------------------------------------------------------------------------|
G-------2-----------2------2------2-----------------------------------------|
D----5--2--3--5--5--2---3--2--3-2-2-----------------------------------------|
A----5--0--3--5--5--0---3--0--3-2-0-----------------------------------------|
D----5-----3--5--6------3-----3-2-------------------------------------------|

INTRO:
VERSE:
CHORUSx2:

BRIDGE:
Note:No Capo For The Rest Of Song.
I'm So Sick Of...
E---------------------------------------------------------------------------|
B---------------------------------------------------------------------------|
G----9-9-9-6----------2-----------------------------------------------------|
D----9-9-9-6-----4---4-4x2---4----------------------------------------------|
A----7-6-5-4----4-4-5-------4-4---------------------------------------------|
D--------------4-----------4---4--------------------------------------------|

END CHORUS:
E----------------------------------------------------------------------------|
B----------------------------------------------------------------------------|
G-------------------------------6---------------------------------------6----|
D----2--4--0--2--2--4--0--4--0--6---2--4--0--2--2--4--0--4--0--4--0--0--6--4-|
A----2--4--0--2--2--4--0--4--0--4---2--4--0--2--2--4--0--4--0--4--0--0--4--4-|
D----2--4--0--2--3--4--0--4--0------2--4--0--2--3--4--0--4--0--4--0--0-----4-|

LITTLE PIANO PART=INTRO
OUTRO:
E---------------------------------------------------------------------------|
B---------------------------------------------------------------------------|
G---------------------------------------------------------------------------|
D---------------------------------------------------------------------------|
A----44--------------44--------------55-------------------------------------|
E--------77--66--77------77--66--77------77--66--77--99--77--66--44~x6------|

Thanx Enjoy
Comments