Evanescence - Tourniquet Chords & Tabs

 

Tourniquet Chords & Tabs

Evanescence Chords & Tabs

Version: 7 Type: Tab 0 ratings
1 star 2 stars 3 stars 4 stars 5 stars
comments

Tourniquet Tab

-------------------------------------------------------------------------------
			     SONG NAME - Band Name
-------------------------------------------------------------------------------
Tabbed by: Jake Soucie
Email: jakesoucie@hotmail.com

Tuning: Standard (EADGBe)

Intro/Chorus Distortion
e|--------------------------------------------------------------------------|
B|--------------------------------------------------------------------------|
G|-----9-12-----9-11----7------9-12----9-11----9----9-12----9-11----7-------|
D|-----x-x------x-x-----x------x-x-----x-x-----x----x-x-----x-x-----x-------|
A|-----7-10-----7-9-----5------7-10----7-9-----7----7-10----7-9-----5-------|
E|-0-0------0-0------0-0----0-0-----0-0-----0-0--0-0-----0-0-----0-0--------|
PM . .      . .      . .    . .     . .     . .  . .     . .     . .
con't
e|----------------|
B|----------------|
G|-12/11----------|
D|-x--x-----------|
A|-10/9---10br9---|
E|------10-----10-|
[ Tab from: http://www.guitartabs.cc/tabs/e/evanescence/tourniquet_tab_ver_7.html ]
Verse (find your own strumming, some are PM'ed) distortion
e|--------------------------------------------------------------------------|
B|--------------------------------------------------------------------------|
G|--------------------------------------------------------------------------|
D|-2-2-4--------------------------------------------------------------------|
A|-2-3-5-6brbr--------------------------------------------------------------|
E|-0-3-5--------------------------------------------------------------------|

Bridge
e|---------------------|  |-----------------------|
B|---------------------|  |-----------------------|
G|-----------------5---|  |---------------5-5-5/4-|
D|-2-2-2-2-2-2-2-2-3---|  |-2-2-2-2-2-2-2-3-3-3/2-|
A|-2-2-2-2-2-2-2-2-----|  |-2-2-2-2-2-2-2---------|
E|-0-0-0-0-0-0-0-0-----|X3|-0-0-0-0-0-0-0---------|X1 (repeat whole thing X2)
PM . . . . . . . .          . . . . . . .

Arrangment
Intro X2
verse (repeat as needed)
Chorus X2
verse (repeat as needed)
Chorus X2
Bridge X2
Chorus X6
Comments