Evanescence - Tourniquet Chords & Tabs

 

Tourniquet Chords & Tabs

Evanescence Chords & Tabs

Version: 4 Type: Tab 0 ratings
1 star 2 stars 3 stars 4 stars 5 stars
comments

Tourniquet Tab

   
-------------------------------------------------------------------------------
	               Tourniquet - Evanescence 
-------------------------------------------------------------------------------
Tabbed by: Dan
Email: buckma17@newpaltz.edu

Tuning: standard

Key:
| /  slide up
| \  slide down
| h  hammer-on
| p  pull-off

Theres 2 main parts to the song, the intro is a combination of part1 being played
over part2  played 2X as is the chorus. the verse is just part 2 played 4X any
changes please e-mail me... as well as any feedback or comments....this is my first tab

Intro: part 1 over part 2 (1x)
verse: part 2 (4x)
chorus: part 1 over part 2 (2x)
verse: part 2 (4x)
chorus: part 1 over part 2 (2x)
bridge
chorus: part 1 over part 2 (5x or so fades out)

Part 1:
e|-----------------------------------------------------------|
B|-----------------------------------------------------------|
G|-----------------------------------------------------------|
D|-------------5--------4-----------------5-------4----------|
A|---------/ 7------/ 7-----5---------/ 7------/ 7-----7-----|
E|-----------------------------------------------------------|
[ Tab from: http://www.guitartabs.cc/tabs/e/evanescence/tourniquet_tab_ver_4.html ]
e|----------------------------------------------------------------|
B|----------------------------------------------------------------|
G|----------------------------------------------------------------|
D|----------5-------4--------------/ 7-7-5----/ 7-5 -4h5p4--------|
A|------/ 7------/ 7-----5----------------------------------------|
E|----------------------------------------------------------------|  


Part 2:
e|----------------------------------------------------------------------|
B|----------------------------------------------------------------------|
G|----------------------------------------------------------------------|
D|---9-9---9---9-----9-9---9---9-----5-5---5---5-----7-7---8---8--------|
A|---7-7---7---7-----7-7---7---7-----3-3---3---3-----5-5---6---6--------|
E|---0-0---0---0-----0-0---0---0-----0-0---0---0-----0-0---0---0--------|    


Bridge:
e|----------------------------------------------------------------------------|
B|----------------------------------------------------------------------------|
G|----------------------------------------------------------------------------|
D|--------------2-2---2-2---2-2---2-2------------2-2---2-2---2-2---2-2--------|
A|--------------2-2---2-2---2-2---2-2----/ 8-----2-2---2-2---2-2---2-2----/ 8-|
E|-------9 \----0-0---0-0---0-0---0-0------------0-0---0-0---0-0---0-0--------|

E|-------------------------------------------------------------------------|
B|-------------------------------------------------------------------------|
G|-------------------------------------------------------------------------|
D|---2-2---2-2---2-2---2-2-------------2-2---2-2---2-2---2-2---------------|
A|---2-2---2-2---2-2---2-2----/ 8------2-2---2-2---2-2---2-2---/ 8-8-8-7-\-|
E|---0-0---0-0---0-0---0-0-------------0-0---0-0---0-0---0-0---------------| 2x
Comments