Evanescence - Tourniquet Chords & Tabs

 

Tourniquet Chords & Tabs

Evanescence Chords & Tabs

Version: 3 Type: Tab 0 ratings
1 star 2 stars 3 stars 4 stars 5 stars
comments

Tourniquet Tab

   
Evanescence- Tourniquet

Tabbed by: Nick
Email: xDisturbed314x@hotmail.com

Tuning: Standard

pretty sure on just about all of this cept for the verses, leave some corrections if u have any

Key:
| /  slide up
| \  slide down
| h  hammer-on
| p  pull-off
| ~  vibrato
| +  harmonic
| x  Mute note



Intro:
e|-----------------------------------------------------------|
B|-----------------------------------------------------------|
G|-----------------------------------------------------------|
D|-----2-5--------2-4-------0-------2-5--------2-4-------7---|
A|--0--------0-0-------0-0-----0-0--------0-0-------0-0------|
E|--0--------0-0-------0-0-----0-0--------0-0-------0-0------|
 2x                                                      ^^
                                     sounds like harmonics maybe, not sure

after 2nd time play:
e|-------------------------------|
B|-------------------------------|
G|-------------------------------|
D|--7-5-4-7-5-4h5p4p0------------|
A|-------------------------------|
E|-------------------------------|
repeat all 2x

After first full time through, 2nd guitar comes in w/:
e|------------------------------------|
B|------------------------------------|
G|----------11------------------------|
D|--12--11--------11----12--11--7-----|
A|---------------------------------7--|
E|------------------------------------|



1st Verse:
e|-----------------|
B|-----------------|
G|-----------------|
D|--2--------0-----|
A|--2--------0-----|
E|--2--------0-----|

e|---------------------------------------------------------------------------|
B|---------------------------------------------------------------------------|
G|---------------------------------------------------------------------------|
D|-------------------------------------------------------------------2~2~----|
A|--2-2-2-2---2-2-2--2-2---2-2-2-2--2-2-2----0-0-0-0---0-0-0---0-0-0---------|
E|--2-2-2-2---2-2-2--2-2---2-2-2-2--2-2-2----0-0-0-0---0-0-0---0-0-0---------|
        x x   x x    x x   x x      x x          x x   x x       x x
repeat 2x


Chorus 2x (same as intro)

[ Tab from: http://www.guitartabs.cc/tabs/e/evanescence/tourniquet_tab_ver_3.html ]
2nd Verse:
e|---------------------------------------------------------------------------|
B|---------------------------------------------------------------------------|
G|---------------------------------------------------------------------------|
D|-------------------------------------------------------------------2~2~----|
A|--2-2-2-2---2-2-2--2-2---2-2-2-2--2-2-2----0-0-0-0---0-0-0---0-0-0---------|
E|--2-2-2-2---2-2-2--2-2---2-2-2-2--2-2-2----0-0-0-0---0-0-0---0-0-0---------|
        x x   x x    x x   x x      x x          x x   x x       x x

e|-----------------------------------------------|
B|-----------------------------------------------|
G|-----------------------------------------------|
D|-----------------------------------------------|
A|--2-2-2-2-2-2-2-2-2-2-2-2-2-2-2-2-2-2-2-2-2-2--|
E|--2-2-2-2-2-2-2-2-2-2-2-2-2-2-2-2-2-2-2-2-2-2--|
    x x     x x     x x   x x     x x     x x

e|-----------------------------------------------|
B|-----------------------------------------------|
G|-----------------------------------------------|
D|------------------------------------2~2~-------|
A|-----------------------------------------------|
E|--0-0-0-0-0-0-0-0-0-0-0-2-2-2-2-2-2------------|
    x x     x x     x x   x x     x x


Chorus 2x


Bridge:
e|-----|------------------------------|
B|-----|------------------------------|
G|-----|------------------------------|
D|-----|---------------------------3--|
A|-----|------------------------------|
E|--8\-|-0-0-0--0-0--0--0-0--0-0-0----|
         x x x  x x  x  x x  x x x   
        Repeat 3x, listen for rhythms

After 3rd time play:
e|---------------------------|
B|---------------------------|
G|---------------------------|
D|---------------------------|
A|-----------------/9-9-9-8--|
E|-0-0--0-0--0--0------------|

Repeat first part again, then pause for the "i want to die" scream, then play
the /9-9-9-8, then pick up w/ the chorus


Chorus 6x


After 4th chorus, 2nd guitar comes in (same as intro):
e|------------------------------------|
B|------------------------------------|
G|----------11------------------------|
D|--12--11--------11----12--11--7-----|
A|---------------------------------7--|
E|------------------------------------|


thats it, give corrections/suggestions if u have any
Comments