Evanescence - Tourniquet Chords & Tabs

 

Tourniquet Chords & Tabs

Evanescence Chords & Tabs

Version: 10 Type: Tab 0 ratings
1 star 2 stars 3 stars 4 stars 5 stars
comments

Tourniquet Tab

   
tabed by xfenderxbenderx (nick) notaveryshortname@yaho.com

im pretty sure most of this is right...especaily the chorus
                         
                        EVENESCENCE
                            TOURNIQUET
 

 *=PALM MUTE
  h=hammer 
  p=pull off           
  /=slide
  
            DROP "C" TUNE YOUR GUITAR FOR THIS SONG!!!

GUITAR 1        CHORUS/INTRO
D|---------------------------------------------------------------|
A|---------------------------------------------------------------|
F|---------------------------------------------------------------|
C|------4--7-----4--6---------------4--7-----4--6----------------|
G|--4-4------4-4------4-4--7----4-4------4-4-------4-4--7--------|
C|--4-4------4-4------4-4-------4-4------4-4-------4-4-----------|
    ***      ***      ***       ***      ***       ***           
D|---------------------------------------------------------------|
A|---------------------------------------------------------------|
F|---------------------------------------------------------------|
C|------4--7-----4--6--------------------9-7-6-9-7-6h7p6---------|x2
G|--4-4------4-4-------4--4--7---4-4--------------------7--------|
C|--4-4------4-4-------4--4------4-4-----------------------------|
    ***      ***       ****      ***

Verse 1         plays lightly in the background
D|-----------------------------------------------------------------|
A|-----------------------------------------------------------------|
F|-----------------------------------------------------------------|
C|-----------------------------------------------------------------|
G|-4-4-4-4-4-4-4-4-4-4-4-4-4-4-4-4-0-0-0-0-0-0-0-0-2-2-2-2-2-2-2-2-|
C|-4-4-4-4-4-4-4-4-4-4-4-4-4-4-4-4-0-0-0-0-0-0-0-0-2-2-2-2-2-2-2-2-|
    i lay dieing and im pouring    crimson regret  and betrayal

Verse 2      listen to song to get right pick timing
D|-----------------------------------------------------------------|
A|-----------------------------------------------------------------|
F|-----------------------------------------------------------------|
C|-----------------------------------------------------------------|
G|--4-4-4--4-4-4---4-4-4--4-4-4---0-0-0--0-0-0--2-2-2--2-2-2-3-2-3-|
C|--4-4-4--4-4-4---4-4-4--4-4-4---0-0-0--0-0-0--2-2-2--2-2-2---2---|
    *****  ***     *****  ***     *****  ***    ***    *** 
     im dieng        praying     bleeding      and screaming!

D|-----------------------------------------------------------------|
A|-----------------------------------------------------------------|
F|-----------------------------------------------------------------|
C|-----------------------------------------------------------------|
G|--4-4-4--4-4-4---4-4-4--4-4-4---0-0-0--0-0-0--2-2-2--2-2-2-3-2-3-|
C|--4-4-4--4-4-4---4-4-4--4-4-4---0-0-0--0-0-0--2-2-2--2-2-2---2---|
    *****  ***     *****  ***     *****  ***    ***    ***  
   am i too lost to be saved      am i too    looooooost?

Chorus
D|---------------------------------------------------------------|
A|---------------------------------------------------------------|
F|---------------------------------------------------------------|
C|------4--7-----4--6---------------4--7-----4--6----------------|
G|--4-4------4-4------4-4--7----4-4------4-4-------4-4--7--------|
C|--4-4------4-4------4-4-------4-4------4-4-------4-4-----------|
    ***      ***      ***       ***      ***       ***    
    my        god         my      tourniquet
       
D|---------------------------------------------------------------|
A|---------------------------------------------------------------|
F|---------------------------------------------------------------|
C|------4--7-----4--6--------------------9-7-6-9-7-6h7p6---------|x2
G|--4-4------4-4-------4--4--7---4-4--------------------7--------|
C|--4-4------4-4-------4--4------4-4-----------------------------|
    ***      ***       ****      ***
    re turn   to   me   salvaaaaaattiooooooooooooon

verse 2
D|-----------------------------------------------------------------|
A|-----------------------------------------------------------------|
F|-----------------------------------------------------------------|
C|-----------------------------------------------------------------|
G|--4-4-4--4-4-4---4-4-4--4-4-4---0-0-0--0-0-0--2-2-2--2-2-2-3-2-3-|
C|--4-4-4--4-4-4---4-4-4--4-4-4---0-0-0--0-0-0--2-2-2--2-2-2---2---|
    *****  ***     *****  ***     *****  ***    ***    ***       
 will you be on the other side     or will u fortget meeeeee?
verse 3
D|---------------------------------------------------------------|
A|---------------------------------------------------------------|
F|---------------------------------------------------------------|
C|---------------------------------------------------------------|
G|--4-4-4--4-4-4--4-4-4--4-4-4--4-4-4--4-4-4--0-0-0--0-0-0--0-0-0|
C|--4-4-4--4-4-4--4-4-4--4-4-4--4-4-4--4-4-4--0-0-0--0-0-0--0-0-0|
    ***    ***    ***    ***    ***    ***    ***    ***    ***
     im dieing          praying              bleeding

D|---------------------------------------------------------------|
A|---------------------------------------------------------------|
F|---------------------------------------------------------------|
C|---------------------------------------------------------------|
G|-2-2-2--2-2-3-2-3----------------------------------------------|
C|-2-2-2--2-2-2--------------------------------------------------|
   ***    ***
   screaming!

D|---------------------------------------------------------------|
A|---------------------------------------------------------------|
F|---------------------------------------------------------------|
C|---------------------------------------------------------------|
G|--4-4-4--4-4-4--4-4-4--4-4-4--4-4-4--4-4-4--0-0-0--0-0-0--0-0-0|
C|--4-4-4--4-4-4--4-4-4--4-4-4--4-4-4--4-4-4--0-0-0--0-0-0--0-0-0|
    ***    ***    ***    ***    ***    ***    ***    ***    ***
    am i too lost   to  be   saved               am  i   too

D|---------------------------------------------------------------|
A|---------------------------------------------------------------|
F|---------------------------------------------------------------|
C|---------------------------------------------------------------|
G|-2-2-2--2-2-3-2-3----------------------------------------------|
C|-2-2-2--2-2-2--------------------------------------------------|
   ***    ***
   loooooost?!
[ Tab from: http://www.guitartabs.cc/tabs/e/evanescence/tourniquet_tab_ver_10.html ]
Chorus
D|---------------------------------------------------------------|
A|---------------------------------------------------------------|
F|---------------------------------------------------------------|
C|------4--7-----4--6---------------4--7-----4--6----------------|
G|--4-4------4-4------4-4--7----4-4------4-4-------4-4--7--------|
C|--4-4------4-4------4-4-------4-4------4-4-------4-4-----------|
    ***      ***      ***       ***      ***       ***    
    my        god         my      tourniquet
       
D|---------------------------------------------------------------|
A|---------------------------------------------------------------|
F|---------------------------------------------------------------|
C|------4--7-----4--6--------------------9-7-6-9-7-6h7p6---------|x2
G|--4-4------4-4-------4--4--7---4-4--------------------7--------|
C|--4-4------4-4-------4--4------4-4-----------------------------|
    ***      ***       ****      ***
    re turn   to   me   salvaaaaaattiooooooooooooon

verse 4
D|---------------------------------------------------------------|
A|---------------------------------------------------------------|
F|---------------------------------------------------------------|
C|---------------------------5-------------------------5---------|
G|-4--4--4-4--4--4-4--4-4-4----4-4--4-4--4--4-4--4-4-4-----------|
C|-4--4--4-4--4--4-4--4-4-4----4-4--4-4--4--4-4--4-4-4-----------|
   ************************    ***********************
D|---------------------------------------------------------------|
A|---------------------------------------------------------------|
F|---------------------------------------------------------------|
C|---------------------------5-------------------------5-5-5-5\--|
G|-4--4--4-4--4--4-4--4-4-4----4-4--4-4--4--4-4--4-4-4-----------|
C|-4--4--4-4--4--4-4--4-4-4----4-4--4-4--4--4-4--4-4-4-----------|
   ************************    ***********************
D|---------------------------------------------------------------|
A|---------------------------------------------------------------|
F|---------------------------------------------------------------|
C|---------------------------5-------------------------5---------|
G|-4--4--4-4--4--4-4--4-4-4----4-4--4-4--4--4-4--4-4-4-----------|
C|-4--4--4-4--4--4-4--4-4-4----4-4--4-4--4--4-4--4-4-4-----------|
   ************************    ***********************
D|---------------------------------------------------------------|
A|---------------------------------------------------------------|
F|---------------------------------------------------------------|
C|---------------------------5-------------------------5-5-5-5\--|
G|-4--4--4-4--4--4-4--4-4-4--------------------------------------|
C|-4--4--4-4--4--4-4--4-4-4--------------------------------------|
   ************************    (pause) I WANT TO DIE!



Chorus
D|---------------------------------------------------------------|
A|---------------------------------------------------------------|
F|---------------------------------------------------------------|
C|------4--7-----4--6---------------4--7-----4--6----------------|
G|--4-4------4-4------4-4--7----4-4------4-4-------4-4--7--------|
C|--4-4------4-4------4-4-------4-4------4-4-------4-4-----------|
    ***      ***      ***       ***      ***       ***    
    my        god         my      tourniquet
       
D|---------------------------------------------------------------|
A|---------------------------------------------------------------|
F|---------------------------------------------------------------|
C|------4--7-----4--6--------------------9-7-6-9-7-6h7p6---------|x2
G|--4-4------4-4-------4--4--7---4-4--------------------7--------|
C|--4-4------4-4-------4--4------4-4-----------------------------|
    ***      ***       ****      ***
    re turn   to   me   salvaaaaaattiooooooooooooon

Outro
D|---------------------------------------------------------------|
A|---------------------------------------------------------------|
F|---------------------------------------------------------------|
C|------4--7-----4--6---------------4--7-----4--6----------------|
G|--4-4------4-4------4-4--7----4-4------4-4-------4-4--7--------|
C|--4-4------4-4------4-4-------4-4------4-4-------4-4-----------|
    ***      ***      ***       ***      ***       ***    
    my wounds              cry for the grave
       
D|---------------------------------------------------------------|
A|---------------------------------------------------------------|
F|---------------------------------------------------------------|
C|------4--7-----4--6--------------------9-7-6-9-7-6h7p6---------|
G|--4-4------4-4-------4--4--7---4-4--------------------7--------|
C|--4-4------4-4-------4--4------4-4-----------------------------|
    ***      ***       ****      ***
    my soul cries                for deliverance


D|---------------------------------------------------------------|
A|---------------------------------------------------------------|
F|---------------------------------------------------------------|
C|------4--7-----4--6---------------4--7-----4--6----------------|
G|--4-4------4-4------4-4--7----4-4------4-4-------4-4--7--------|
C|--4-4------4-4------4-4-------4-4------4-4-------4-4-----------|
    ***      ***      ***       ***      ***       ***    
   will  i            be   denied  christ
       
D|---------------------------------------------------------------|
A|---------------------------------------------------------------|
F|---------------------------------------------------------------|
C|------4--7-----4--6--------------------9-7-6-9-7-6h7p6---------|
G|--4-4------4-4-------4--4--7---4-4--------------------7--------|
C|--4-4------4-4-------4--4------4-4-----------------------------|
    ***      ***       ****      ***
    tourniquet             my    suiciiiiiiiiiiiiiide

D|---------------------------------------------------------------|
A|---------------------------------------------------------------|
F|---------------------------------------------------------------|
C|------4--7-----4--6---------------4--7-----4--6----------------|
G|--4-4------4-4------4-4--7----4-4------4-4-------4-4--7--------|
C|--4-4------4-4------4-4-------4-4------4-4-------4-4-----------|
    ***      ***      ***       ***      ***       ***   
       
D|---------------------------------------------------------------|
A|---------------------------------------------------------------|
F|---------------------------------------------------------------|
C|------4--7-----4--6--------------------9-7-6-9-7-6h7p6---------|
G|--4-4------4-4-------4--4--7---4-4--------------------7--------|
C|--4-4------4-4-------4--4------4-4-----------------------------|
    ***      ***       ****      ***

during intro/chorus/outro 2nd guitar plays

D|---17--16---------------17---16--------------------------------|
A|------------17--------------------17---------------------------|
F|---------------------------------------16----------------------|
C|---------------------------------------------------------------|
G|---------------------------------------------------------------|
C|---------------------------------------------------------------|

thats all folks


IF YOU DONT KNOW HOW TO C TUNE...DROP BIG E STRING DOWN 2 STEPS, IF YOU PUT YOUR FINGER
ON THE 9TH FRET IT SHOULD SOUND THE SAME AS THE NEXT STRING. THEN DROP THE REST OF THE
STRINGS USING STANDARD TUNING TYPE DEAL (5TH FRET AND OPEN FOR NEXT STRING AND SO ON)
DONT FORGET TO LEAVE C DROPED LOWER

somethin like that
Comments