Evanescence - Tourniquet Chords & Tabs

 

Tourniquet Chords & Tabs

Evanescence Chords & Tabs

Version: 1 Type: Bass Tab 0 ratings
1 star 2 stars 3 stars 4 stars 5 stars
comments

Tourniquet Bass Tab

-----------------------------------------------------------------------------
			     TOURNIQUET - EVANESCENCE
-----------------------------------------------------------------------------

Tabbed By :Marla 
e-mail:_vouge87@excite.com 

Tuning: Dropped D (DADG)


Intro: (listen for strumming patterns)
G|--------------------------------------------------------------------------|
D|---x2-x2--x2-x2--x2-x2--x2-x2--x2-x2--x2-x2--x2-x2--x2-x2--x2-x2--x2-x2---|
A|---x2-x2--x2-x2--x2-x2--x2-x2--x2-x2--x2-x2--x2-x2--x2-x2--x2-x2--x2-x2---|
D|---x2-x2--x2-x2--x2-x2--x2-x2--x2-x2--x2-x2--x2-x2--x2-x2--x2-x2--x2-x2---|


Verse: (listen for strumming and releases)
G|--------------------------------------------------------------------------|
D|---x2-x2--x2-x2--x2-x2--x2-x2--x2-x2--x2-x2--x2-x2--00--0/1/2-------------|
A|---x2-x2--x2-x2--x2-x2--x2-x2--x2-x2--x2-x2--x2-x2--00--0/1/2-------------|
D|---x2-x2--x2-x2--x2-x2--x2-x2--x2-x2--x2-x2--x2-x2--00--0/1/2-------------|

[ Tab from: http://www.guitartabs.cc/tabs/e/evanescence/tourniquet_btab.html ]
Chorus:
G|--------------------------------------------------------------------------|
D|---x2-x2--x2-x2--x2-x2--x2-x2--x2-x2--x2-x2--x2-x2--x2-x2--x2-x2--x2-x2---|
A|---x2-x2--x2-x2--x2-x2--x2-x2--x2-x2--x2-x2--x2-x2--x2-x2--x2-x2--x2-x2---|
D|---x2-x2--x2-x2--x2-x2--x2-x2--x2-x2--x2-x2--x2-x2--x2-x2--x2-x2--x2-x2---|


Bridge:
G|--------BRACKET-----------------------------------------------------------|
D|--2|222222--2222-2/3|------------------22222222/333\2---------------------|
A|--2|222222--2222-2/3|(REPEAT 3 TIMES)--22222222/333\2--GO BACK TO BRACKET-|
D|--2|222222--2222-2/3|------------------22222222/333\2---------------------|
         
G|--------------------------------------------------------------------------|
D|------------------2/333\2-------------------------------------------------|
A|-I WANT TO DIE!!--2/333\2-------------------------------------------------|
D|------------------2/333\2-------------------------------------------------|


Back to the CHORUS


* /  slide up
* \  slide down
* x  Mute note
=============================================================================
If you have any question, comments or corrections, please feel free to email me
Comments