Evanescence - Solitude Chords & Tabs

 

Solitude Chords & Tabs

Evanescence Chords & Tabs

Version: 2 Type: Tab 0 ratings
1 star 2 stars 3 stars 4 stars 5 stars
comments

Solitude Tab

Hey everybody! I just wanted to say that I really love Evanescence, they are my favorite 
The tabs to this song are out there, but i've noticed that they aren't complete in most 
So, i tried to do my best to correct that. enjoy.


Tabbed by:rose18951
Email:
[ Tab from: http://www.guitartabs.cc/tabs/e/evanescence/solitude_tab_ver_2.html ]
Tuning:standard
Intro:
e|----------------------------------------------0--------------------------------|
B|------------------------------------0------------------------------------------|
G|------0----------0----------0-------------0---------0--------------------------|
D|---0----------0----------0------0------0---------------2-----------------------|
A|-3--------2--------2--3------3-------2--------3--------------------------------|
E|-------------------------------------------------------------------------------|
Verse:
e|---0----------------------------------------0------------------------------------|
B|------0--------0-----------------------0------0----------------------------------|
G|----------0--------0------0-------0--------------0---------0-------0----0--------|
D|----------------------0--------0------------------------0-------0------0---------|
A|-----------------------------------------------------3-------2-----2-3-----------|
E|---------------------------------------------------------------------------------|

Sorry guys. That's it for now but i'm working on the chorus.
Comments