Evanescence - My Last Breath Chords & Tabs

 

My Last Breath Chords & Tabs

Evanescence Chords & Tabs

Version: 4 Type: Tab 0 ratings
1 star 2 stars 3 stars 4 stars 5 stars
comments

My Last Breath Tab

   
Tabbed by: Joriel Vsquez
Song Title: My Last Breath
Band: Evanescence
Album: Fallen
Panama, December 6th '04.

Tuning: Drop D (e, B, G, D, A, D)

Intro:
e|------------------------------------------------------------
B|------------------------------------------------------------
G|------------------------------------------------------------
D|---------4--4-7-0--0-7-2----------4--4-7-0--0-7-2--2-0-2-4\-
A|---------4--4-7-0--0-7-2----------4--4-7-0--0-7-2--2-0-2-4\-
D|-7h9-7-6-4--4-7-0--0-7-2--7h9-7-6-4--4-7-0--0-7-2--2-0-2-4\-

Verse: "Hold on to me..." (Keyboard background)

Chorus: "Holding my last breath..." play same thing as intro. 0:54

Verse 2: "I'll miss the winter..." (Keyboard background)

Chorus
[ Tab from: http://www.guitartabs.cc/tabs/e/evanescence/my_last_breath_tab_ver_4.html ]
Bridge:
e--------------------------------------------------------------------keeps
B--------------------------------------------------------------------going
G--------------------------------------------------------------------
D-0-0-0-0-0-0-1-0-0--0-0-0-0--0-0---------1-0-0--0-0-0-0--0-0--------
A-0-0-0-0-0-0-1-0-0--0-0-0-0--0-0---------1-0-0--0-0-0-0--0-0--------
D-0-0-0-0-0-0-1-0-0--0-0-0-0--0-0--3p1p0--1-0-0--0-0-0-0--0-0--3p1p0-
   . . . .            . . . .                     . . . .

e-----------------------------------------------------Well their u
B-----------------------------------------------------got the idea.
G-----------------------------------------------------
D-0-0-0-0---0-0------1-0-0--0-0-0-0--0-0---------1-0-0
A-0-0-0-0---0-0------1-0-0--0-0-0-0--0-0---------1-0-0then..
D-0-0-0-0-7-0-0-7h9--1-0-0--0-0-0-0--0-0--3p1p0--1-0-0
   . . . .   . .             . . . .

"No one's there..." 2:34
e--------------------------------------
B--------------------------------------
G--------------------------------------
D-0-0-0-0---0-0---------4--4-7-0--0-7-2
A-0-0-0-0---0-0---------4--4-7-0--0-7-2
D-0-0-0-0-7-0-0-7h9-7-6-4--4-7-0--0-7-2

Chorus: "Say goodnight..." 
keep playing the same thing till song fades.

OK their u got the idea, I didn't put the whole strumming just to save space. Well if
you have an ZOOM 505II play the song with the patch A4  "Wild Metal II" it will sound
equal as the original. 

Got suggestions or any comments? email me at: jvc182diota@hotmail.com

Hope u like the tab...
Comments