Evanescence - My Last Breath Chords & Tabs

 

My Last Breath Chords & Tabs

Evanescence Chords & Tabs

Version: 1 Type: Tab 0 ratings
1 star 2 stars 3 stars 4 stars 5 stars
comments

My Last Breath Tab

tuning: drop D down 1/2 step


synth intro

intro/chorus
distortion
Db-----------5-5-0h1-1-0h3-3-3-3                  --5///
Ab--1h3p1p0--5-5-0h1-1-0h3-3-3-3    last time go  --5///mute
Db-----------5-5-0h1-1-0h3-3-3-3                  --5///
Gb------------------------------
Bb------------------------------
Eb------------------------------
[ Tab from: http://www.guitartabs.cc/tabs/e/evanescence/my_last_breath_tab.html ]
verse
clean
Db-----------------3-5------------------
Ab--5-6--3-5--1-3--------5-6--3-5--1-3--
Db--------------------------------------  chorus
Gb--------------------------------------
Bb--------------------------------------
Eb--------------------------------------

bridge
distortion       PM-------------- |            PM-------
Db(after chorus) 1-1-1-1-1-1-1-1--|3-0-0-1-0-0--0-0-0-0-
Ab---------------1-1-1-1-1-1-1-1--|3-0-0-1-0-0--0-0-0-0-
Db---------------1-1-1-1-1-1-1-1--|3-0-0-1-0-0--0-0-0-0-
Gb--------------------------------|---------------------
Bb--------------------------------|---------------------
Eb--------------------------------|---------------------

and then you go back into the chorus and fade out. I garuntee you 
that this is 100% correct.
Comments