Evanescence - My Immortal Chords & Tabs

 

My Immortal Chords & Tabs

Evanescence Chords & Tabs

Version: 8 Type: Tab 0 ratings
1 star 2 stars 3 stars 4 stars 5 stars
comments

My Immortal Tab

   
-------------------------------------------------------------------------------
			    "My Immortal" Evanescence
-------------------------------------------------------------------------------
Tabbed by:Sills (Jaysin) "did tab backwards, reads as it looks"
Email:xbreakingdownx@aol.com    

     Tuning:drop-d,aflat,d,g,b,e

D|---------------------------------0-----------------------------------------|
B|0--------------------------------------------------------------------------|
D|---------------------------------------------------------------------------|
G|----10----10------10----------------10-------10----------------------------|
B|-------11--------------11--10------------10--------------------------------|
E|10------------10--------------------------------10-------------------------|
[ Tab from: http://www.guitartabs.cc/tabs/e/evanescence/my_immortal_tab_ver_8.html ]
e|---------------------------------0-----------------------------------------|
B|0--------------------------------------------------------------------------|
G|---------------------------------------------------------------------------|
D|-----10------10------10-------------10------10-----------------------------|
A|13-------11------13------11--10---------10---------------------------------|
E|------------------------------------------------10-------------------------|


     (pre-chorus)

e|--------5-------------------3----------------------------------0-----------|
B|---------------------------------------------------------------------------|
G|------------0--------------------0-----------------------------------------|
D|0-5-7----------0--------------------2---------x2---------------------------|
A|------------------3--------------------3-----------------------------------|
E|--------6-----------3-6-----5--------------5-------------------8-----------|

     {chorus}
      
e|-5----5---------1---1---------3--3---------0--0----------------------------|
B|--------4-------------0------------2------------4--------------------------|
G|----------5-------------1------------3------------3------------------------|
D|------------3-------------0------------2------------2------7-5-------------|
A|---------------------------------------------------------------8-7---------|
E|-6--------------3-------------5------------1-------------------------------|


===============================================================================
Comments