Evanescence - My Immortal Chords & Tabs

 

My Immortal Chords & Tabs

Evanescence Chords & Tabs

Version: 10 Type: Tab 0 ratings
1 star 2 stars 3 stars 4 stars 5 stars
comments

My Immortal Tab

My Immortal:Evanescence
Tabbed by leVon lopez
Email:GuitarlevonGear@yahoo.com


"capo 2fret"
don't pluck with heavy hand,softly.
linten then after, they said it's nice!!!
gainful and clear,I hope you will enjoy this tabs !!

intro:Guitar
e|---------------------------------------|
a|--3-------2----------------------------|
d|---2-2-2-2-2-2--2-2--------------------|
g|----0---0---0----0---------------------|
b|------1-------0v-----------------------|
e|---------------------------------------|

e|-----------------------------------------------------------------|
a|--3-------2------------3-------2---------------------------------|
d|---2-2-2-2-2-2--2-2-----2-2-2-2-2-2--2-2-------------------------|
g|----0---0---0----0-------0---0---0----0--------------------------|
b|------1-------0v-----------1-------0v----------------------------|
e|-----------------------------------------------------------------|
      I'm so tired of being here,
                          suppressed by all of my childish fears

e|---------------------------------------|
a|--3-------2----------------------------|
d|---2-2-2-2-2-2--2-2--------------------|
g|----0---0---0----0---------------------|
b|------1-------0v-----------------------|
e|---------------------------------------|
     and if you have to leave ,
                   I wish that you would just leave

e|---------------------------------------|
a|-----3-------2-------------------------|
d|------2-2-2-2-2-2--2-2-----------------|
g|-------0---0---0----0------------------|
b|---------1-------0v--------------------|
e|---------------------------------------|
        because your presence still lingers here,
                    and it won't leave me alone


e|-0---------0-----------0-------------------0------3--------|
a|--0---------2-------2---2------2----2-------2------2-------|
d|---2---------2-----------2-----------2-------0------0------|
g|----2---2-2---0--2---2----0-2----2-2--0---0---0------0---0-|
b|-----1-1-1-----0--0-1-1----0-0-1--1----0-0-----0-0----0-0--|
e|------0---------------------------------0-------0------3---|
[ Tab from: http://www.guitartabs.cc/tabs/e/evanescence/my_immortal_tab_ver_10.html ]
    These wounds won't seem to heal
                    this pain is just too real
                    there's just too much that time cannot erase
 |Chorus|
e|---------1---3----------------------------------------|
a|---------3---2---2------2-----------------------------|
d|----2----3---0----2-----------------------------------|
g|--2-2-2--2-2-0-0---0---0------------------------------|
b|---01--1-1--10--0---0-0-------------------------------|
e|----0---01---3---3---0--------------------------------|
When you cried I'd wipe away all of your tears
When you'd scream I'd fight away all of your fears
And I've held your hand through all of these years
e|---------1---3----------------------------------------|
a|---------3---2---2------2----------0------------------|
d|----2----3---0----2---------------2-------------------|
g|--2-2-2--2-2-0-0---0---0---------2--------------------|
b|---01--1-1--10--0---0-0---------1---------------------|
e|----0---01---3---3---0---------0----------------------|
but you still have                all of me
             same of the 1 verse
e|-----------------------------------------------------------------|
a|--3-------2------------3-------2---------------------------------|
d|---2-2-2-2-2-2--2-2-----2-2-2-2-2-2--2-2-------------------------|
g|----0---0---0----0-------0---0---0----0--------------------------|
b|------1-------0v-----------1-------0v----------------------------|
e|-----------------------------------------------------------------|
You used to captivate me by your resonating light
but now I'm bound by the life you left behind
Your face it haunts my once pleasant dreams
your voice it chased away all the sanity in me

|Pre-Chorus:|

e|-1----1--------0-------0--------------------------------------|
a|--3---3---0----0---2---2--1---1-------------------------------|
d|---3--3----2---2----2--2---3--3-------------------------------|
g|----2-22-2--2--22-2--0-00---2-2-------------------------------|
b|-----11-------1-1------00-0--11-------------------------------|
e|------1-1-----00-0--------------------------------------------|
    I've tried so hard to tell myself that you're gone

e|------0------------------1-3-0-1-1-3-3000--------|
a|-0----0---2----2---------3-2-0-3-3-2-2222--------|
d|--2---2----2---2---0---003-0-2-3-3-0-0222--------|
g|---2--2--2--0--00---2--222-0-2-2-2-0-0000--------|
b|----1-1-1----0-0-0---1-111-0-1-1-1-0-0000--------|
e|-----000------00--0---1111-3-0-1-1-3-3000--------|
   but though you're still with me
                         I've been alone of all alone
|chorus:

version
Comments