Evanescence - My Immortal Chords & Tabs

 

My Immortal Chords & Tabs

Evanescence Chords & Tabs

Version: 1 Type: Bass Tab 0 ratings
1 star 2 stars 3 stars 4 stars 5 stars
comments

My Immortal Bass Tab

Band- Evanescence
Song- My Immortal


Intro/Verse:
G|----------------|
D|----------------|
A|------4------4--|
E|---5------5-----|

 Pre-chorus:
G|-------------------------------|
D|--4-------4-------4------------|
A|------4-------4-------4----7---|
E|-------------------------------|
[ Tab from: http://www.guitartabs.cc/tabs/e/evanescence/my_immortal_btab.html ]
 Chorus:
G|------------------------------|---------------------------|
D|--4---------------------------|-4-------------------------|
A|--------5--------7--------4---|------5-------7~~~~~~~~~~~~|
E|------------------------------|--------------------0~~~~~~|

 Bridge:
G|---------------------------------|
D|---------------------------------|
A|--5---9---4---5---5---4---5---7--|
E|---------------------------------|

 End:
G|--------|
D|--7~~~~~|
A|--0~~~~~|
E|--5~~~~~|
Comments