Evanescence - My Immortal Acoustic Chords & Tabs

 

My Immortal Acoustic Chords & Tabs

Evanescence Chords & Tabs

Version: 3 Type: Tab 0 ratings
1 star 2 stars 3 stars 4 stars 5 stars
comments

My Immortal Acoustic Tab

This is one of my favorite songs of Evanescense
only one guitar is needed in this version to perform the song

 My Immortal
(evanescense)

intro:

e|-0----4----0----4--|
B|-4----5----4----5--|
G|-5----6----5----6--|
D|-6----6----6----6--|
A|-0----4----0----4--|
E|-------------------|

verse:

e|-0----4----0----4----0----4----0----4--|
B|-4----5----4----5----4----5----4----5--|
G|-5----6----5----6----5----6----5----6--|
D|-6----6----6----6----6----6----6----6--|
A|-0----4----0----4----0----4----0----4--|
E|---------------------------------------|

pre-chorus:

e|-9----4/9----4/9----4-------|
B|-10---5/10---5/10---5----0--|
G|-11---6/11---6/11---6----1--|
D|-11---6/11---6/11---6----2--|
A|-9----4/9----4/9----4----2--|
E|-------------------------0--|

chorus:

e|-2--2-------4----2--2-------4----2--2-------4----2--2-------0------|
B|-2--3----0--5----2--3----0--5----2--3----0--5----2--3----0-0--0-0--|
G|-2--2----1--6----2--2----1--6----2--2----1--6----2--2----1----1-1--|
D|-4--0----2--6----4--0----2--6----4--0----2--6----4--0----2----2-2--|
A|-4--0----2--4----4--0----2--4----4--0----2--4----4--0----2----2-2--|
E|-2-------0-------2-------0-------2-------0-------2-------0----0-0--|

(intro)

verse 2:

e|-0----4----0----4----0----4----0----4--|
B|-4----5----4----5----4----5----4----5--|
G|-5----6----5----6----5----6----5----6--|
D|-6----6----6----6----6----6----6----6--|
A|-0----4----0----4----0----4----0----4--|
E|---------------------------------------|

pre-chorus:

e|-9----4/9----4/9----4-------|
B|-10---5/10---5/10---5----0--|
G|-11---6/11---6/11---6----1--|
D|-11---6/11---6/11---6----2--|
A|-9----4/9----4/9----4----2--|
E|-------------------------0--|

chorus:
[ Tab from: http://www.guitartabs.cc/tabs/e/evanescence/my_immortal_acoustic_tab_ver_3.html ]
e|-2--2-------4----2--2-------4----2--2-------4----2--2-------0------|
B|-2--3----0--5----2--3----0--5----2--3----0--5----2--3----0-0--0-0--|
G|-2--2----1--6----2--2----1--6----2--2----1--6----2--2----1----1-1--|
D|-4--0----2--6----4--0----2--6----4--0----2--6----4--0----2----2-2--|
A|-4--0----2--4----4--0----2--4----4--0----2--4----4--0----2----2-2--|
E|-2-------0-------2-------0-------2-------0-------2-------0----0-0--|

e|----------|
B|-0-0-0-0--|
G|-1-1-1-1--|
D|-2-2-2-2--|
A|-2-2-2-2--|
E|-0-0-0-0--|

refrain:

e|-2----2---------2----2----4----2-------|
B|-3----2----0----3----2----5----3----0--|
G|-2----2----1----2----2----6----2----1--|
D|-0----4----2----0----4----4----0----2--|
A|-0----4----2----0----4----4----0----2--|
E|------2----0---------2--------------0--|

adlib:

e|-2--2-------4----2--2-------4--|
B|-2--3----0--5----2--3----0--5--|
G|-2--2----1--6----2--2----1--6--|
D|-4--0----2--6----4--0----2--6--|
A|-4--0----2--4----4--0----2--4--|
E|-2-------0-------2-------0-----|

chorus:

e|-2--2-------4----2--2-------4----2--2-------4----2--2-------0------|
B|-2--3----0--5----2--3----0--5----2--3----0--5----2--3----0-0--0-0--|
G|-2--2----1--6----2--2----1--6----2--2----1--6----2--2----1----1-1--|
D|-4--0----2--6----4--0----2--6----4--0----2--6----4--0----2----2-2--|
A|-4--0----2--4----4--0----2--4----4--0----2--4----4--0----2----2-2--|
E|-2-------0-------2-------0-------2-------0-------2-------0----0-0--|

outro:

e|-0----4----0----4----0----4----0----4----0--|
B|-4----5----4----5----4----5----4----5----4--|
G|-5----6----5----6----5----6----5----6----5--|
D|-6----6----6----6----6----6----6----6----6--|
A|-0----4----0----4----0----4----0----4----0--|
E|--------------------------------------------|
Comments