Evanescence - Lies Chords & Tabs

 

Lies Chords & Tabs

Evanescence Chords & Tabs

Version: 1 Type: Bass Tab 0 ratings
1 star 2 stars 3 stars 4 stars 5 stars
comments

Lies Bass Tab

   
Band- Evanescence
Song- Lies

Tuning: Full Step Down (A D G C F)

this is a good song for evanescence

intro/outro
F|--------------------------------------------------------||
C|--------------------------------------------------------||
G|------2-------------------------------------------------||
D|--2-3---3-2-0-2-----------------------------------------||
A|0-------------------------------------------------------||

verses
F|--------------------------------------------------------||
C|--------------------------------------------------------||
G|--------------------------------------------------------||
D|0~-0~-0~-0~---------------------------------------------||
A|--------------------------------------------------------||
[ Tab from: http://www.guitartabs.cc/tabs/e/evanescence/lies_btab.html ]
pre-chorus
F|--------------------------------------------------------||
C|--------------------------------------------------------||
G|--------------------------------------------------------||
D|00--00--00-00-------------------------------------------||
A|--------------------------------------------------------||

chorus
F|--------------------------------------------------------||
C|--------------------------------------------------------||
G|--------------------------------------------------------||
D|0-------------------------------------------------------||
A|--8888-77--555--777--8----------------------------------||x3

F|--------------------------------------------------------||
C|--------------------------------------------------------||
G|--------------------------------------------------------||
D|0-------------------------------------------------------||
A|--8888-77--555--333--1----------------------------------||x1

bridge(play intro/outro)

final verse(rest in me I'll comfort you)
F|--------------------------------------------------------||
C|--------------------------------------------------------||
G|--------------------------------------------------------||
D|00000000-00000000-00000000-00000000---------------------||
A|--------------------------------------------------------||
Comments