Evanescence - Imaginary Chords & Tabs

 

Imaginary Chords & Tabs

Evanescence Chords & Tabs

Version: 4 Type: Tab

Imaginary Tab

Aqui esta el solo de imaginary de cd not for your ears, cualquier corrección nvienla a krox_88@hotmail.com

02:19

E---------------------------------------------------------------------I
B---------------------------------------------------------------------I
G----------------------------11---------------9h11-9--10^-10-9--------I
D--9p7-------------------7h9-----------7h9h11-------------------------I
A------10p9p7~-----7h9h10--------7h9h10-------------------------------I
e---------------------------------------------------------------------I

[ Tab from: http://www.guitartabs.cc/tabs/e/evanescence/imaginary_tab_ver_4.html ]
E---------------------------------------------------------------------I
B---------------------------------------------------------------------I
G--11-9-7--9-7----9-7-------------------------------------------------I
D--------------10-----11-9-8-8-9-11-----------------------------------I
A-----------------------------------11-9---10-7---10-9~---------------I
e---------------------------------------------------------------------I


E---------------------------------------------------------------------I
B---------------------------------------------------------------------I
G---------------------------------------------------------------------I
D------7-------10-9-(9h10p9)------------------------------------------I
A-9h10----9h10-----------------7~--9~---9h10p9--7h9p7-----------------I
e---------------------------------------------------------------------I