Evanescence - Hello Chords & Tabs

 

Hello Chords & Tabs

Evanescence Chords & Tabs

Version: 4 Type: Tab 0 ratings
1 star 2 stars 3 stars 4 stars 5 stars
comments

Hello Tab

-----------------------------------------------------------------------------
The other tabs are good but i think this is more complete but if you like the others you 
slice this one. With love: me

-----------------------------------------------------------------------------
Tabbed by: Mario Oscar
Email: x17_89@hotmail.com

Tuning:standard

  This riff x2
 (Este riff x2)
e|---------------/--------------/--------------------------------------------|
B|---3-3-2-2-0-2-/------2---0---/---------2-320-20---------------------------|
G|------------2--/----2--2-2--2-/-----3--------3-----------------------------|
D|--4-4-4-4-4----/---2-2--2--2--/---4--4-4-----------------------------------|
A|-2-------------/--0-----------/--4-4--4------------------------------------|
E|---------------/--------------/-2------------------------------------------|
[ Tab from: http://www.guitartabs.cc/tabs/e/evanescence/hello_tab_ver_4.html ]
 "Has no one told you she´s not breathing..."
e|---------------/----------------2---------|
B|-0-2-3--2--0-2-/-3-0--2-3-3-0-2-----------|
G|----------2-2--/--------------------------| This last one x2
D|--4-4----------/-----4-4------------------|(Este ultimo 2 veces)
A|--------0------/-0--------0---------------|
E|-3-------------/--------------------------|


 "Mind giving you someone to talk to..."
e|---------------------------------------|
B|-0--0--2-3-----0--2-3------2---0-0-----|
G|--2--------------------------------3---|
D|---2--------------------------4--4-----|
A|-0-------------------------------------|
E|-----------3-2-0-------0-2-3-----------|

Start playing all again until the song ends
(Vuelve a tocar todo hasta que la cancion termine)

 End (Fin):        And thats all this is the best song of the album.
e|-----------|
B|-0---------|      pues ahi esta,esta cabron para tocar y mas para
G|-----------|      sacar la tablatura porke no sabia ke otros ya la habian
D|-----------|      hecho de saberlo ni me esforzaba tanto,pero esta rola me
A|-2---------|      da de volteos bien machin. Saludos a todos los rockeros
E|-----------|      de Mexico y a Shadai tepic nayarit.
Comments