Evanescence - Hello Chords & Tabs

 

Hello Chords & Tabs

Evanescence Chords & Tabs

Version: 3 Type: Tab 0 ratings
1 star 2 stars 3 stars 4 stars 5 stars
comments

Hello Tab

-------------------------------------------------------------------------------
			     SONG NAME - Band Name
-------------------------------------------------------------------------------
Tabbed by: Elizabeth Maness
Email:bizzy15@hotmail.com, put subject as guitar-tabs
Tuning: Standard

e|---------------------------------------------------------------------------|
B|---------------------------------------------------------------------------|
G|---------------------------------------------------------------------------|
D|----------------------------------5-5-4-2-4-2-0----0----0----0-------------|
A|-2-4-5-4-0-2-4-2-4-5-4-0-2-4-2-4----------------4----4----2-4-----2-4-5-5--|
E|---------------------------------------------------------------3-----------|
Playground, Schoolbell         Has no one         Hello          you someone

[ Tab from: http://www.guitartabs.cc/tabs/e/evanescence/hello_tab_ver_3.html ]
e|--------------------------------------------------------------------------|
B|--------------------------------------------------------------------------|
G|--------------------------------------------------------------------------|
D|---------------------------------------------5-5-4-2-4-2-0--0--0----0-----|
A|-4-2-4---2-4-5-4-0-2-4-7-5-5-4-0-0-2-4-4-2-4---------------4--4-2-4-----2-|
E|----------------------------------------------------------------------3---|
to,Hello   If I         soon I know        Don't            Hello


e|-----------------------------------------------------------------------------------|
B|-----------------------------------------------------------------------------------|
G|-----------------------------------------------------------------------------------|
D|-------------------------------5-5-4-8-9-11-12-11-14-12-11-9-11-12-5-9-11----------|
A|-4-5-5-4-10-8-6-5---------2-4------------------------------------------------------|
E|-----------------------------------------------------------------------------------|
So you can hide don't cry   Suddenly                   I'm stil here


e|--------------------------------------------------------------------------|
B|--------------------------------------------------------------------------|
G|--------------------------------------------------------------------------|
D|--------------------------------------------------------------------------|
A|-12-11-9-11-11-9-8-9------------------------------------------------------|
E|--------------------------------------------------------------------------|
Comments