Evanescence - Haunted Chords & Tabs

 

Haunted Chords & Tabs

Evanescence Chords & Tabs

Version: 5 Type: Tab 0 ratings
1 star 2 stars 3 stars 4 stars 5 stars
comments

Haunted Tab

-----------------------------------------------------------------------------
			     Hanted - Evanescence
-----------------------------------------------------------------------------
Tabbed by: Bristlehead
Email: beisenberger@cox.net

Tuning: Dropped D

Intro (Tabbed for Guitar)
e|--0~--7~--6~--3-2-0~--8~--7~--3-2--|
B|-----------------------------------|
G|-----------------------------------|
D|-----------------------------------|
A|------------------3~---------------|
D|--2~-------------------------------|

Verse (Second Time Only)
e|------------------------------------------------------------------|
B|------------------------------------------------------------------|
G|------------------------------------------------------------------|
D|--222-222-2-2----222-222-2-2----222-222-2-2----222-222-2-2----x2--|
A|--222-222-2-2----222-222-2-2----333-333-3-3----333-333-3-3--------|
D|--222-222-2-2----222-222-2-2----222-222-2-2----222-222-2-2--------|

Chorus
e|--------------------------------------------(1st-time)-----------(2nd)--|
B|------------------------------------------------------------------------|
G|--------------------------------------------4~-4~-4~/7------------9~\---|
D|--2~-2-2--xx-x--0~-0-0--xx-x--2~-2-2--xx-x--4~-4~-4~/7--(repeat)--9~\---|
A|--2~-2-2--xx-x--0~-0-0--xx-x--2~-2-2--xx-x--2~-2~-2~/5------------7~\---|
D|--2~-2-2--xx-x--0~-0-0--xx-x--2~-2-2--xx-x------------------------------|

Before Verse 2
e|--0---2---3---2---0---2---3---2----|
B|----0---0---0---0---0---0---0---0--|
G|-----------------------------------|
D|-----------------------------------|
A|-----------------------------------|
D|-----------------------------------|
[ Tab from: http://www.guitartabs.cc/tabs/e/evanescence/haunted_tab_ver_5.html ]
Solo
e|--------------------------------------------------------------------------|
B|--5-5-5-5-5--7-5-4--4h5p4-4-----------------------------------------------|
G|-------------------------6-6p4h6-6b(7)-4h6-6b(7)-4h6-4h6p4-4h6p4-4h6b(7)--|
D|----------------------------------------------------------6-----6---------|
A|--------------------------------------------------------------------------|
D|--------------------------------------------------------------------------|

e|--------------------------------------------------------------------------|
B|--------------------------------------------------------5p4--5p4--4h5p4---|
G|--4h6p4-4------------------------------4h6-4h6b(7)r6-4-----6----6------6--|
D|-------7-7p6p4-4-----------------4h6h7------------------------------------|
A|--------------7-7p6h7p4~--4h6h7-------------------------------------------|
D|--------------------------------------------------------------------------|

e|--------------------------------------------------------------------------|
B|--4h5p4--4h5p4--4h5p4--4h5p4h5/7--5-4--5-4--4h5p4--5--7--5--7-/9h10p9-7---|
G|-------6------6------6----------------------------------------------------|
D|--------------------------------------------------------------------------|
A|--------------------------------------------------------------------------|
D|--------------------------------------------------------------------------|

e|------------------|
B|--7h9p7--5--7--5--|
G|------------------|
D|------------------|
A|------------------|
D|------------------|

Ending
e|--------------------------------------------------------------------------|
B|--------------------------------------------------------------------------|
G|--------------------------------------------------------------------------|
D|--222--222--2-2-----------------------------------------------------------|
A|--222--222--2-2-----------------------------------------------------------|
D|--222--222--2-2-----------------------------------------------------------|



I put a bunch of "~"s in, because the song is pretty slow and on some notes chords/notes
you just have to WAIT...which is what that means.  Also...there's harmonics on like, all
of the bends in the solo.  Or pretty much all of them.  Just listen to the recording...I
gave you the backbone of it, you can go from there... peace.

Bristlehead
Comments