Evanescence - Haunted Chords & Tabs

 

Haunted Chords & Tabs

Evanescence Chords & Tabs

Version: 1 Type: Tab 2 ratings
1 star 2 stars 3 stars 4 stars 5 stars
comments

Haunted Tab

   
By: Darren (s3_17@hotmail.com)
Band:Evanescence
Song: Haunted(First one on Guitar Tab Universe :P )


key:
/ = slide
pm= palm mute
h = hammer on
p = pull off
^ = bend
~ = Let note ring
# = artificial harmonic

intro
electronics


chorus I
gI
--------------------------------------------------------------------------------------------------
--------------------------------------------------------------------------------------------------
--------------------------------------------------------------------------------------------------
------------------------------7---7-7-------------------------------------------------------------
--------------2---2-2--/10-9--5---5-5--/9-7--2---2-2--/10-9-10-9-7-9------------------------------
--------------0---0-0---------5---5-5--------0---0-0----------------------------------------------x1

--------------------------------------------------------------------------------------------------
--------------------------------------------------------------------------------------------------
--------------------------------------------------------------------------------------------------
-------------------7---7-7------------------------------------------------------------------------
---2---2-2--/10-9--5---5-5--/9-7--2---2-2--/10-9-10-9-7-9-2---------------------------------------
---0---0-0---------5---5-5--------0---0-0-----------------0---------------------------------------x1

gII
--------------------------------------------------------------------------------------------------
--------------------------------------------------------------------------------------------------
--------------------------------------------------------------------------------------------------
-----------------------------------7---7-7---7-7------------------------------4---4---4---4-/-7---
--------------2---2-2---2-2---x-x--5---5-5---5-5---x-x--2---2-2---2-2---x-x---2---2---2---2-/-5---
--------------0---0-0---0-0---x-x--5---5-5---5-5---x-x--0---0-0---0-0---x-x-----------------------x1

--------------------------------------------------------------------------------------------------
--------------------------------------------------------------------------------------------------
--------------------------------------------------------------------------------------------------
------------------------7---7-7---7-7------------------------------4---4---4---4-/-7--------------
---2---2-2---2-2---x-x--5---5-5---5-5---x-x--2---2-2---2-2---x-x---2---2---2---2-/-5--------------
---0---0-0---0-0---x-x--5---5-5---5-5---x-x--0---0-0---0-0---x-x----------------------------------x1



verse I
gI & gII
--------------------------------------------------------------------------------------------------------
--------------------------------------------------------------------------------------------------------
--------------------------------------------------------------------------------------------------------
--------------------------------------------------------------------------------------------------------
---2-2-2--2-2-2---2--2--------2-2-2--2-2-2---2--2--------2-2-2--2-2-2---2-2--------2-2-2--2-2-2---2-2---
---0-0-0--0-0-0---0--0--------0-0-0--0-0-0---0--0--------0-0-0--0-0-0---0-0--------0-0-0--0-0-0---0-0---x2
pm - - -  - - -               - - -  - - -               - - -  - - -              - - -  - - - 



chorus II
gI
--------------------------------------------------------------------------------------------------
--------------------------------------------------------------------------------------------------
--------------------------------------------------------------------------------------------------
------------------------------7---7-7-------------------------------------------------------------
--------------2---2-2--/10-9--5---5-5--/9-7--2---2-2--/10-9-10-9-7-9------------------------------
--------------0---0-0---------5---5-5--------0---0-0----------------------------------------------x1

--------------------------------------------------------------------------------------------------
--------------------------------------------------------------------------------------------------
--------------------------------------------------------------------------------------------------
-------------------7---7-7------------------------------------------------------------------------
---2---2-2--/10-9--5---5-5--/9-7--2---2-2--/10-9--------------------------------------------------
---0---0-0---------5---5-5--------0---0-0---------------------------------------------------------x1

gII
--------------------------------------------------------------------------------------------------
--------------------------------------------------------------------------------------------------
--------------------------------------------------------------------------------------------------
-----------------------------------7---7-7---7-7------------------------------4---4---4---4-/-7---
--------------2---2-2---2-2---x-x--5---5-5---5-5---x-x--2---2-2---2-2---x-x---2---2---2---2-/-5---
--------------0---0-0---0-0---x-x--5---5-5---5-5---x-x--0---0-0---0-0---x-x-----------------------x1
[ Tab from: http://www.guitartabs.cc/tabs/e/evanescence/haunted_tab.html ]
--------------------------------------------------------------------------------------------------
--------------------------------------------------------------------------------------------------
--------------------------------------------------------------------------------------------------
------------------------7---7-7---7-7------------------------------4---4---4---4-/----------------
---2---2-2---2-2---x-x--5---5-5---5-5---x-x--2---2-2---2-2---x-x---2---2---2---2-/----------------
---0---0-0---0-0---x-x--5---5-5---5-5---x-x--0---0-0---0-0---x-x----------------------------------x1



solo
gI
-----------------------------------------------------------------------------------------------------------
--8-7-5-5^7-5~-55--5^7-4-4h5p4---4-------------------------------------------------------------------------
-------------------------------6---6-4-6-6#^8-4h6~-6^8-4h6~-4h6p4----4h6p4-----4-6#------------------------
------------------------------------------------------------------6p4-----6p4h6----------------------------
-----------------------------------------------------------------------------------------------------------
-----------------------------------------------------------------------------------------------------------

-----------------------------------------------------------------------------------------------------------
---------------------------------------------------------5-4-2-4^5-4p2-5p4p2-5p4p2-5p4p2-5p4p2-5p4p2-------
--4h6p4---4---------------------------------4h6-4-6-6^8----------------------------------------------------
--------7---7-6-5---4-----------------4h6h7----------------------------------------------------------------
------------------7---7-6---4#--4h6h7----------------------------------------------------------------------
--------------------------7--------------------------------------------------------------------------------

-----------------------------------------------------------------------------------------------------------
--5/7-5-4-5-4-5-4#-5-5/7-5-7-7/9-10-9-7-7h9p7-5-7-5~~-------------------------------------------------------
-----------------------------------------------------------------------------------------------------------
-----------------------------------------------------------------------------------------------------------
-----------------------------------------------------------------------------------------------------------
-----------------------------------------------------------------------------------------------------------


gII
-----------------------------------------------------------------------------------------------------------
-----------------------------------------------------------------------------------------------------------
-----------------------------------------------------------------------------------------------------------
--/-6--6--6--6---4--4--4--4-/-6--6--6--6--------------6--6--6--6--4--4--4--4-/-6--6--6--6--4--4--4--4---
--/-4--4--4--4---2--2--2--2-/-4--4--4--4--6--6--6--6--4--4--4--4--2--2--2--2-/-4--4--4--4--2--2--2--2---
-------------------------------------------4--4--4--4------------------------------------------------------



chorus III
gI
--------------------------------------------------------------------------------------------------
--------------------------------------------------------------------------------------------------
--------------------------------------------------------------------------------------------------
------------------------------7---7-7-------------------------------------------------------------
--------------2---2-2--/10-9--5---5-5--/9-7--2---2-2--/10-9-10-9-7-9------------------------------
--------------0---0-0---------5---5-5--------0---0-0----------------------------------------------x1

--------------------------------------------------------------------------------------------------
--------------------------------------------------------------------------------------------------
--------------------------------------------------------------------------------------------------
-------------------7---7-7------------------------------------------------------------------------
---2---2-2--/10-9--5---5-5--/9-7--2---2-2--/10-9--------------------------------------------------
---0---0-0---------5---5-5--------0---0-0---------------------------------------------------------x1

gII
---------------------------------------------------------------------------------------
---------------------------------------------------------------------------------------
---------------------------------------------------------------------------------------
------------------------7---7-7---7-7------------------------------4---4---4---4-/-7---
---2---2-2---2-2---x-x--5---5-5---5-5---x-x--2---2-2---2-2---x-x---2---2---2---2-/-5---
---0---0-0---0-0---x-x--5---5-5---5-5---x-x--0---0-0---0-0---x-x-----------------------x1

---------------------------------------------------------------------------------------
---------------------------------------------------------------------------------------
---------------------------------------------------------------------------------------
------------------------7---7-7---7-7------------------------------4---4---4---4-/-7---
---2---2-2---2-2---x-x--5---5-5---5-5---x-x--2---2-2---2-2---x-x---2---2---2---2-/-5---
---0---0-0---0-0---x-x--5---5-5---5-5---x-x--0---0-0---0-0---x-x-----------------------x1


End
gI & gII
--------------------------
--------------------------
--------------------------
--------------------------
---2-2-2--2-2-2---2--2----
---0-0-0--0-0-0---0--0----x2
pm - - -  - - -
Comments