Evanescence - Going Under(with Solo) Chords & Tabs

 

Going Under(with Solo) Chords & Tabs

Evanescence Chords & Tabs

Version: 1 Type: Tab 2 ratings
1 star 2 stars 3 stars 4 stars 5 stars
comments

Going Under(with Solo) Tab

Title: Going Under
Artist: Evanescence
http://www.ablazen.com

Verse:
Repeat this throughout the song.
e|--------------
b|--------------
g|-4-4-x-4--4-4-
d|-4-4-x-4--4-4-
a|-2-2-x-2--2-2-
e|-2-2-x-2--2-2-

Chorus:
e|-----|-----|-----|-----|
b|-----|-----|-----|-----|
g|--4--|-----|--7--|--2--|
d|--4--|--5--|--7--|--2--|
a|--2--|--5--|--5--|--0--|
e|--2--|--3--|--5--|--0--|

Bridge:
e|-----|-----|-----|
b|-----|-----|-----|
g|-----|-----|-----|
d|--5--|--4--|--2--|
a|--5--|--4--|--2--|
e|--3--|--2--|--0--|
[ Tab from: http://www.guitartabs.cc/tabs/e/evanescence/going_underwith_solo_tab.html ]
Solo(with WAH):
e|-------------------------------------------------
b|-------------------------------------------------
g|-----4---4h6-7-4*~----/9h11p9\7h9-6h7------------
d|-4h6---6------------------------------9*\--------
a|-------------------------------------------------
e|-------------------------------------------------

e|-------------------------------------------------
b|-/12----12-12-10-10--5h7p5-----------------------
g|---------------------------7/9p7\6-6h7p6\4h6-4*~-
d|-------------------------------------------------
a|-------------------------------------------------
e|-------------------------------------------------
Comments