Evanescence - Going Under Chords & Tabs

 

Going Under Chords & Tabs

Evanescence Chords & Tabs

Version: 7 Type: Tab 0 ratings
1 star 2 stars 3 stars 4 stars 5 stars
comments

Going Under Tab

Band:Evanescence
Song (title): Going Under
Tabbed by: JuliusLT 
Email: jula@centras.lt
Tuning: Standart

This is LIVE version. (Live @ Rock Am Ring)Concert.
Original version is a little bit different(it is not necessary to play INTRO) 
I think it is perfect tabs.Enjoy IT !!!

pm. - Palm mute :)
 *  - Harmonic

INTRO (Guitar 1)

e|-----------------------|
B|-----------------------|
G|-----------------------| 2x
D|-4-4----4-4-4----------|
A|-2-2----2-2-4----------|
E|-2-2----2-2-2----------|
     pm.      pm.


VERSE (Guitar 1)
                            (Both Guitars play)
e|-----------------------|  |-----------------------|
B|-----------------------|  |-----------------------|
G|-----------------------|2x|-----------------------| 14x
D|-4-4----4-4-4----------|  |-4-4----4-4-4----------|
A|-2-2----2-2-4----------|  |-2-2----2-2-2----------|
E|-2-2----2-2-2----------|  |-2-2----2-2-2----------|
     pm.      pm.               pm.      pm.

CHORUS (Both Guitars play)

e|--------------------------------------------------|
B|--------------------------------------------------|
G|--------------------------------------------------| 4x
D|-4-4---5-5-5-5---7-7--7-7-7-7---------------------|
A|-2-2---5-5-5-5---5-5--7-7-7-7---------------------|
E|-2-2---3-3-3-3---5-5--5-5-5-5---------------------|

End of Chorus (Guitar 1)

e|-----------------------|
B|-----------------------|
G|-----------------------|
D|-4-4----4-4-4----------|
A|-2-2----2-2-4----------|
E|-2-2----2-2-2----------|
     pm.      pm.

VERSE 2 (Both Guitars Play)
                            
e|-----------------------|
B|-----------------------|
G|-----------------------| 8x
D|-4-4----4-4-4----------|
A|-2-2----2-2-4----------|
E|-2-2----2-2-2----------|
     pm.      pm.               

CHORUS 4x(Same as First, But without [End of chorus])

[ Tab from: http://www.guitartabs.cc/tabs/e/evanescence/going_under_tab_ver_7.html ]
BRIDGE (Both Guitars Play)
e|------------------------------------------------|
B|------------------------------------------------|
G|------------------------------------------------|
D|-55555555--44444444--4444444444444444-----------|
A|-55555555--44444444--2222222222222222-----------|
E|-33333333--22222222--2222222222222222-----------|

e|---------------------|
B|---------------------|
G|---------------------|
D|-55555555--44444-----|
A|-55555555--44444-----|
E|-33333333--22222-----|



SOLO(Guitar 1)

e|-------------------------------------------------------------------------|
B|---------------------------------------------------10b12b10--8h10p8------|
G|----------7h9p7-------------7h9p7-----------------------------------11p9-|
D|-------7h9-----9p7--9-----7------9p7-9p7---------------------------------|
A|----7h9---------------------------------9p7-9p7--------------------------|
E|-------------------------------------------------------------------------|

e|-------------------------------------------------------------------------|
B|-------------------------------------------------------------------------|
G|-9p7--------------9p7----------------------------------------------------|
D|----9p7--7h9--7h9--------------------------------------------------------|
A|-------------------------------------------------------------------------|
E|-------------------------------------------------------------------------|

After Solo (Guitar 2) 
e|-19*~~~-|
B|--------|
G|--------|
D|--------|
A|--------|
E|--------|

CHORUS (Both Guitars play)

e|--------------------------------------------------|
B|--------------------------------------------------|
G|--------------------------------------------------| 6x
D|-4-4---5-5-5-5---7-7--7-7-7-7---------------------|
A|-2-2---5-5-5-5---5-5--7-7-7-7---------------------|
E|-2-2---3-3-3-3---5-5--5-5-5-5---------------------|

End of Chorus (Both Guitars Play)

e|-----------------------|
B|-----------------------|
G|-----------------------|
D|-4-4----4-4-4----------|
A|-2-2----2-2-4----------|
E|-2-2----2-2-2----------|
     pm.      pm.
Comments