Evanescence - Going Under Chords & Tabs

 

Going Under Chords & Tabs

Evanescence Chords & Tabs

Version: 6 Type: Tab 0 ratings
1 star 2 stars 3 stars 4 stars 5 stars
comments

Going Under Tab

Going Under
Evanesence
Tabbed by: Mariano Arnaiz
Anything to: marianoarnaiz@hotmail.com

Important

This song habe a really hight distortion and a lot of palmutes but dont get
confuse just play the tab if you have any question plesea write it to me.

To understand when you have to change follow the singer voice notes so repaet
the notes and parts until you can hear the change after a while it will be easy
to follow without reading the tab.

Intro / Verse (follow the rythem of the song)

e--X-X---X-X-X--
B--X-X---X-X-X--
G--4-4---4-4-4--
D--4-4---4-4-4--
A--2-2---2-2-2--
E--2-2---2-2-2

Interlude

e--X-X-X---x-x-x---x-x-x--x-x--
B--X-X-X---x-x-x---x-x-x--x-x--
G--4-4-4---7-7-7---4-4-4--x-x--
D--4-4-4---7-7-5---4-4-4--4-4--
A--2-2-2---5-5-5---2-2-2--4-4--
E--2-2-2--5-5-5---2-2-2--2-2

Repeat the verse and the interlude


Pre-chorus

e-------------------------
B--------------------------
G-------------4----7----4--
D------4----4--4--7-7--4-4-
A----4--4--2----5-----2----
E--2----------------------

Chorus

e--X-X-x--X-X-X---x-x-x---x-x-x--x-x-x--
B--X-X-x--X-X-X---x-x-x---x-x-x--x-x-x--
G--X-X-x--4-4-4---7-7-7---4-4-4--x-x-x--
D--4-4-4--4-4-4---7-7-5---4-4-4--4-4-4--
A--4-4-4--2-2-2---5-5-5---2-2-2--4-4-4--
E--2-2-2--2-2-2--5-5-5---2-2-2--2-24

Verse






Interlude 2
[ Tab from: http://www.guitartabs.cc/tabs/e/evanescence/going_under_tab_ver_6.html ]
e--X-X-X---x-x-x---x-x-x--x-x--
B--X-X-X---x-x-x---x-x-x--x-x--
G--4-4-4---7-7-7---4-4-4--x-x--
D--4-4-4---7-7-5---4-4-4--4-4--
A--2-2-2---5-5-5---2-2-2--4-4--
E--2-2-2--5-5-5---2-2-2--2-2

Pre-chorus

Chorus

Verse (2)

e--X-X-X---x-x-x---x-x-x--x-x-x--
B--x-X-X---x-x-x---x-x-x--x-x-x--
G--4-4-4---7-7-7---x-x-x--x-x-x--
D--4-4-4---7-7-5---7-7-7-7-7-7--
A--2-2-2---5-5-5---7-7-7-5-5-5--
E--2-2-2--5-5-5---5-5-5-5-5-5


Solo (low distortion)

e-------------------------------------------------------------------------
B---------------------------------------------------10b12b10--8h10p8------
G----------7h9p7-------------7h9p7-----------------------------------11p9-
D-------7h9-----9p7--9-----7------9p7-9p7---------------------------------
A----7h9---------------------------------9p7-9p7--------------------------
E-------------------------------------------------------------------------

e-------------------------------------------------------------------------
B-------------------------------------------------------------------------
G-9p7--------------9p7----------------------------------------------------
D----9p7--7h9--7h9--------------------------------------------------------
A-------------------------------------------------------------------------
E-------------------------------------------------------------------------

Pre-chorus

Chorus (fade out)
Comments