Evanescence - Going Under Chords & Tabs

 

Going Under Chords & Tabs

Evanescence Chords & Tabs

Version: 4 Type: Tab 0 ratings
1 star 2 stars 3 stars 4 stars 5 stars
comments

Going Under Tab

   
-------------------------------------------------------------------------------
			     GOING UNDER - Evanescence
-------------------------------------------------------------------------------
Tabbed by: hottnsexxy
Email: the_itchyspaz@hotmail.com
[ Tab from: http://www.guitartabs.cc/tabs/e/evanescence/going_under_tab_ver_4.html ]
Tuning: eADGBE                  Part 2
  Part 1                     x8 G           A          Emin      Emin 
e|---------------|-------------|-----------|-----------|--------|----------|
B|---------------|-------------|-----------|-----------|--------|----------|
G|---------------|-------------|-----------|-----------|--------|----------|
D|---4-4---4-4-4-|-4-4---4-4-4-|-----------|-----------|--------|----------|
A|---2-2---2-2-2-|-2-2---2-2-2-|-----------|-----------|--------|----------|
E|---2-2---2-2-2-|-2-2---2-2-2-|-----------|-----------|--------|----------|
 Part 3                       x4
e|---------------|--------------|------------------------------------------|
B|---------------|--------------|------------------------------------------|
G|---------------|--------------|------------------------------------------|
D|-4--4--4-------|-7--7--7------|------------------------------------------|
A|-2--2--2-5-5---|-5--5--5-7-7--|------------------------------------------|
E|-2--2--2-3-3---|-5--5--5-5-5--|------------------------------------------|
  Part 4
e|--------------|---------------|-----------------------|------------------|
B|--------------|---------------|-----------------------|------------------|
G|--------------|---------------|-----------------------|------------------|
D|-4-4--4-4-4---|-4-4--4-4-4----|-4-4--4-4-4--4---4---4-|-4-4--4-4-4-------|
A|-2-2--2-2-2---|-2-2--2-2-2----|-2-2--2-2-2--2---2---2-|-2-2--2-2-2-------|
E|-2-2--2-2-2---|-2-2--2-2-2----|-2-2--2-2-2--2---2---2-|-2-2--2-2-2-------|
 Part 2 Part 3
|------|-------|e|---------|----------|----------|----------|--------------|
|------|-------|A|---------|----------|----------|----------|--------------|
|--1x--|--4x---|D|---------|----------|----------|----------|--------------|
|------|-------|G|---------|----------|-44444444-|-44444444-|--------------|
|------|-------|B|55555555-|-44444444-|-22222222-|-22222222-|-55555555-----|
|------|-------|E|33333333-|-22222222-|-22222222-|-22222222-|-33333333-----|
           Part 3    G    A    Emin    G         Part 2
e|-------||-------|e|----|----|-------|------||--------|-------------------|
B|-------||-------|A|----|----|-------|------||--------|-------------------|
G|-------||--2x---|D|----|----|-------|------||--6x----|-------------------|
D|-------||-------|G|----|----|-------|------||--------|-4-4---4-4-4-------|
A|-44444-||-------|B|----|----|-------|------||--------|-2-2---2-2-2-------|
E|-22222-||-------|E|----|----|-------|------||--------|-2-2---2-2-2-------|

============================================================================
Comments