Evanescence - Going Under Chords & Tabs

 

Going Under Chords & Tabs

Evanescence Chords & Tabs

Version: 10 Type: Tab 0 ratings
1 star 2 stars 3 stars 4 stars 5 stars
comments

Going Under Tab

   
--------------------------------------------------------------------------
			     Going Under - Evanescence
--------------------------------------------------------------------------
Tabbed by:joe edwards
Email:kantankarus_lemming@hotmail.com

I've only tabbed chords and the solo, not rhythm except for the verse, becasue it's
pretty easy to figure out. Amy's voice give hints.

Tuning:Standard EADGBe (2 electric 6-string guitars)

Fig 1 - Verse (with distortion)
e|----------------------------------------------------------------------|
B|----------------------------------------------------------------------|
G|-44-444-x--44-444-----------------------------------------------------|
D|-44-444-x--44-444-----------------------------------------------------|
A|-22-222-x--22-222-----------------------------------------------------|
E|----------------------------------------------------------------------|
Fig 1 (gtr 1)x1
Fig 1 (gtr 1+2) x4

Fig 2 - Pre-Chorus (guitar 1 only. no distortion)
  G5     A5      D5     E5
e|----------------------------------------------------------------------|
B|----------------------------------------------------------------------|
G|---------------7------------------------------------------------------|
D|-5------7------7------222---------------------------------------------|
A|-5------7------5------222---------------------------------------------|
E|-3------5-------------000---------------------------------------------|

G5   A5   D5    E5        (pause)
I'm... dy...ing again. I'm going...

Fig 3 - Chorus (both guitars, with distortion)
  B5     G5     D5     A5
e|----------------------------------------------------------------------|
B|----------------------------------------------------------------------|
G|-4-------------7------------------------------------------------------|
D|-4------5------7------7-----------------------------------------------|
A|-2------5------5------7-----------------------------------------------|
E|--------3-------------5-----------------------------------------------|
[ Tab from: http://www.guitartabs.cc/tabs/e/evanescence/going_under_tab_ver_10.html ]
   B5        G5     D5
... under (going under)
   A5     B5     G5     D5
drowning in you
   A5     B5     G5     D5
I'm falling forever
   A5     B5     G5     D5
I've got to break through
  A5
I'm...         
      Fig 1
going under

Fig 1 x4
Pre- Chorus
Chorus

Bridge
   G5     F#5   B5
e|----------------------------------------------------------------------|
B|----------------------------------------------------------------------|
G|---------------4------------------------------------------------------|
D|-5------4------4------------------------------------------------------|
A|-5------4------2------------------------------------------------------|
E|-3------2-------------------------------------------------------------|

            G5                F#5
So go on and scream, scream at me
              B5                       G5
I'm so far away.... I won't be broken again
                F#5
I've got to breathe, I can't keep going un...

Solo. Gtr 1 w/ wah (Gtr 2 play chorus as rhythm)
e|----------------------------------------------------------------------|
B|----------------------------------------------------------------------|
G|----------7-7----------7-9-7---7--------------------------------------|
D|------7-9-----9--9--9--------9---9-7---7-9----9-----------------------|
A|--7-9--------------------------------9--------------------------------|
E|----------------------------------------------------------------------|

e|----------------------------------------------------------------------|
B|--10~----10-10-10-8-10-8-7-8-7---7------------------------------------|
G|-------------------------------9---9-7---7---7-9---7------------------|
D|---------------------------------------9---9--------------------------|
A|----------------------------------------------------------------------|
E|----------------------------------------------------------------------|

pause
repeat chorus x2

| /  slide up
| \  slide down
| h  hammer-on
| p  pull-off
| ~  vibrato
| +  harmonic
| x  Mute note
============================================================================
Comments