Evanescence - Going Under Chords & Tabs

 

Going Under Chords & Tabs

Evanescence Chords & Tabs

Version: 1 Type: Tab 0 ratings
1 star 2 stars 3 stars 4 stars 5 stars
comments

Going Under Tab

   
-------------------------------------------------------------------------------
			     GOING UNDER - Evanescence
-------------------------------------------------------------------------------

Tabbed by:  Bouf
Email: bouf9@hotmail.com

Tuning: Drop D

VERSE

e|---------------------------------------------------------------------------|
B|---------------------------------------------------------------------------|
G|---------------------------------------------------------------------------|
D|-99--999}------------------------------------------------------------------|
A|-99--999}-X8---------------------------------------------------------------|
D|-99--999}------------------------------------------------------------------|


CHORUS

e|---------------------------------------------------------------------------|
B|---------------------------------------------------------------------------|
G|---------------------------------------------------------------------------|
D|-9999-55-0000-7777-}-------------------------------------------------------|
A|-9999-55-0000-7777-}-X4----------------------------------------------------|
D|-9999-55-0000-7777-}-------------------------------------------------------|


-----------
VERSE
-----------
CHORUS
-----------

FILL
[ Tab from: http://www.guitartabs.cc/tabs/e/evanescence/going_under_tab.html ]
e|---------------------------------------------------------------------------|
B|---------------------------------------------------------------------------|
G|---------------------------------------------------------------------------|
D|-555555554444444499999999-----555555554444---------------------------------|
A|-555555554444444499999999-----555555554444---------------------------------|
D|-555555554444444499999999-----555555554444---------------------------------|


SOLO

e|---------------------------------------------------------------------------|
B|-----------------------------------------------------10b12b10--8h10p8------|
G|----------7h9p7-------------7h9p7-------------------------------------11p9-|
D|-------7h9-----9p7--9-----7------9p7-9p7-----------------------------------|
A|----7h9---------------------------------9p7-9p7----------------------------|
D|---------------------------------------------------------------------------|

e|---------------------------------------------------------------------------|
B|---------------------------------------------------------------------------|
G|-9p7--------------9p7------------------------------------------------------|
D|----9p7--7h9--7h9----------------------------------------------------------|
A|---------------------------------------------------------------------------|
D|---------------------------------------------------------------------------|


------------
CHORUS X 2
------------


| /  slide up
| \  slide down
| h  hammer-on
| p  pull-off
| ~  vibrato
| +  harmonic
| x  Mute note
===============================================================================
Comments