Evanescence - Going Under Chords & Tabs

 

Going Under Chords & Tabs

Evanescence Chords & Tabs

Version: 1 Type: Bass Tab 2 ratings
1 star 2 stars 3 stars 4 stars 5 stars
comments

Going Under Bass Tab

"Going Under" by Evanescence

verses:
G|-------------------------------------------------------
D|-------------------------------------------------------
A|-2-2-----2--2-2--------------------------------------
E|-------------------------------------------------------
[ Tab from: http://www.guitartabs.cc/tabs/e/evanescence/going_under_btab.html ]
bridge (I'm dying again):
G|-------------------------------------------------------
D|-------------------------------------------------------
A|-------------------------------------------------------
E|-3-3-3-3-3-3-3-3---2-2-2-2-2-2-2-2---0-0-0-0-0-0-0-0---3-3-3-3-3-3-

chorus:
G|--------------------------------------------------------
D|--------------------------------------------------------
A|-2-2--2--2---5-5--5---0-0--0---7-7-7--------------

bridge 2 (so go on and scream):
G|--------------------------------------------------------
D|--------------------------------------------------------
A|-----------------------------------------2-2-2-2-2-2-2--
E|-3-3-3-3-3-3-3-3---2-2-2-2-2-2-2-2---------------------

this song is easy. any questions email myimmortal5@hotmail.com.
Comments