Evanescence - Fields Of Innocence Chords & Tabs

 

Fields Of Innocence Chords & Tabs

Evanescence Chords & Tabs

Version: 1 Type: Bass Tab 0 ratings
1 star 2 stars 3 stars 4 stars 5 stars
comments

Fields Of Innocence Bass Tab

   
Band- Evanescence
Song- Fields Of Innocence

Tuning: Full Step Down (A D G C F)



intro(x4)
F|-------------------------------------||
C|-------------------------------------||
G|-------------------------------------||
D|7~~---7~~----------------------------||
A|-------------------------------------||

verses(x2)
F|--------------------------------------------------------||
C|--------------------------------------------------------||
G|----------7~77------------------------------------------||
D|7~77-3~33------7~77-7~777~77----------------------------||
A|--------------------------------------------------------||
[ Tab from: http://www.guitartabs.cc/tabs/e/evanescence/fields_of_innocence_btab.html ]
chorus(x2)
F|-------------------------------------||
C|-------------------------------------||
G|-------------------------------------||
D|8--7--5---7--------------------------||
A|-------------------------------------||

after 1st chorus(x1)
F|-------------------------------------||
C|-------------------------------------||
G|-------------------------------------||
D|7~~~~~~~~~~~~~--7~~~~~~~~~~~~~~~-----||
A|-------------------------------------||

pre-2nd chorus(somehow it seems colder now)
F|-------------------------------------||
C|-------------------------------------||
G|-------------------------------------||
D|----7~~--9~~-------------------------||
A|8~-----------------------------------||

bridge
F|------------------||
C|------------------||
G|------------------||
D|------------------||
A|0~00--------------||

end
F|------------------||
C|------------------||
G|------------------||
D|7~~~~~~~~~~~~~~~~-||
A|------------------||

that's all just play it it's a very good song
Comments