Evanescence - Everybodys Fool Chords & Tabs

 

Everybodys Fool Chords & Tabs

Evanescence Chords & Tabs

Version: 7 Type: Tab 0 ratings
1 star 2 stars 3 stars 4 stars 5 stars
comments

Everybodys Fool Tab

----------------------------------------------------------------------------
		    Everybody's Fool - Evanescence
----------------------------------------------------------------------------
Tabbed by: Joe Edwards
Email: kantankarus_lemming@hotmail.com

Most people on here have got most parts right, I'm just putting it all together with
what I can hear, and a different way of playing the intro. This is an awesome song

Tuning: Electric 6-String 1 + 2  -    Drop D        DADGBE
        Acoustic 12-String       -    Double Drop D DADGBD 

Intro (acoustic 12 string)
d|-----0----0----0----0---0--0--0--0--0----0---0---0---0--0-------------|
B|----0----0----0----0---0--0--0--0--0-0--0---0---0---0--0-0------------|
G|--10---10---10---10---9--9--9--9--7---10--10--10--10--7---------------|
D|----------------------------------------------------------------------|
A|----------------------------------------------------------------------|
D|----------------------------------------------------------------------|

d|---0--0--0--0--0----0---0---0---0--0---0--0-----0---0-----------------|
B|--0--0--0--0--0-0--0---0---0---0--0-0-0--0--0--0-0-0-0----------------|
G|-9--9--9--9--7---10--10--10--10--9---7--7--7-10---9-------------------|
D|----------------------------------------------------------------------|
A|----------------------------------------------------------------------|
D|----------------------------------------------------------------------|

Acoustic Out. Electric 1 + 2 in
e|----------------------------------------------------------------------|
B|----------------------------------------------------------------------|
G|----------------------------------------------------------------------|
D|-----3-0-0-0-7/8/7-10-10-10-7-0-0-0-7/8/7-10-10-7---------------------|
A|-----3-0-0-0-7/8/7-10-10-10-7-0-0-0-7/8/7-10-10-7---------------------|
D|-0-0-3-0-0-0-7/8/7-10-10-10-7-0-0-0-7/8/7-10-10-7---------------------|

Verse
e|----------------------------------------------------------------------|
B|----------------------------------------------------------------------|
G|----------------------------------------------------------------------|
D|-0-0--0-0-10--0-0--0-0-x-10-10-0-0--0-0-10-8-5-7-----3-------x2-------|
A|-0-0--0-0-10--0-0--0-0-x-10-10-0-0--0-0-10-8-5-7-----3----------------|
D|-0-0--0-0-10--0-0--0-0-x-10-10-0-0--0-0-10-8-5-7-0-0-3----------------|
[ Tab from: http://www.guitartabs.cc/tabs/e/evanescence/everybodys_fool_tab_ver_7.html ]
Chorus
e|----------------------------------------------------------------------|
B|----------------------------------------------------------------------|
G|----------------------------------------------------------------------|
D|-0-0-0-x-7/8/7-10-10-10-7-0-0-0-x-7/8/7-10-10-10-7-8-8-8-7-5-5-8-7----|
A|-0-0-0-x-7/8/7-10-10-10-7-0-0-0-x-7/8/7-10-10-10-7-8-8-8-7-5-5-8-7----|
D|-0-0-0-x-7/8/7-10-10-10-7-0-0-0-x-7/8/7-10-10-10-7-8-8-8-7-5-5-8-7----|

End of Chorus 1
e|----------------------------------------------------------------------|
B|----------------------------------------------------------------------|
G|----------------------------------------------------------------------|
D|-0---------0-x-10--0---------0---10-----------------------------------|
A|-0---------0-x-10--0---------0---10-----------------------------------|
D|-0-0-0-0-0-0-x-10--0-0-0-0-0-0-x-10-----------------------------------|

Verse x 2
Fill at end of verse (but now i know she...)
e|----------------------------------------------------------------------|
B|----------------------------------------------------------------------|
G|----------------------------------------------------------------------|
D|----------------------------------------------------------------------|
A|-5-3-8-7--5-3-8-10----------------------------------------------------|
D|----------------------------------------------------------------------|

Chorus

Bridge (no guitar for 8 bars. Then guitars come in for "i know the truth"
e|----------------------------------------------------------------------|
B|----------------------------------------------------------------------|
G|----------------------------------------------------------------------|
D|-0-0-0-7/8/7-10-10-10-7-8-8-8-7/8-5-5-5-7-8/10-8-8-8-7-10-10-7-7------|
A|-0-0-0-7/8/7-10-10-10-7-8-8-8-7/8-5-5-5-7-8/10-8-8-8-7-10-10-7-7------|
D|-0-0-0-7/8/7-10-10-10-7-8-8-8-7/8-5-5-5-7-8/10-8-8-8-7-10-10-7-7------|

Chorus x3

End
e|----------------------------------------------------------------------|
B|----------------------------------------------------------------------|
G|----------------------------------------------------------------------|
D|-0--0-0-0-0-0---------------------------------------------------------|
A|-0--0-0-0-0-0---------------------------------------------------------|
D|-0--0-0-0-0-0---------------------------------------------------------|
Comments