Evanescence - Everybodys Fool Chords & Tabs

 

Everybodys Fool Chords & Tabs

Evanescence Chords & Tabs

Version: 1 Type: Tab 1 rating
1 star 2 stars 3 stars 4 stars 5 stars
comments

Everybodys Fool Tab

Evanescence
Everybody’s Fool
Fallen
Tabbed by: J.S.
Email: metallica007006005040302@yahoo.com
TUNNING: Dropped D >DADGBE<


(Sorry no acoustic riff intro.....yet)


(Dist intro)
E-------|----------------------------------------|
B-------|----------------------------------------|
G-------|*--------------------------------------*|
D-0-0--3|*-0-0-0--0-0--7h8p7--10-10-10--0-0--7-*|
A-0-0--3|--0-0-0--0-0--7h8p7--10-10-10--0-0--7--|
D-0-0--3|--0-0-0--0-0--7h8p7--10-10-10--0-0--7--|
 pm--|           pm--|			  pm-|	

(Verses)(w/Dist)
E|---------------------------------------------------------------------------------|
B|---------------------------------------------------------------------------------|
G|*-----------5-5-5-5--------------5-5-5-5------------5-5-5-5---------------------*|
D|*-0-0--0-0--5-5-5-5--0-0--0-0--0-5-5-5-5--0-0--0-0--5-5-5-5--8--5-/-7--0-0--3-*|
A|--0-0--0-0--3-3-3-3--0-0--0-0--0-3-3-3-3--0-0--0-0--3-3-3-3--8--5-/-7--0-0--3--|
D|--0-0--0-0-----------0-0--0-0--0----------0-0--0-0-----------8--5-/-7--0-0--3--|
									       pm-|
[ Tab from: http://www.guitartabs.cc/tabs/e/evanescence/everybodys_fool_tab.html ]
(Chorus)(w/Dist)	
E|----------------------------------------|------------------------------------|-----------------------------|
B|----------------------------------------|------------------------------------|-----------------------------|
G|*--------------------------------------*|------------------------------------|*-------------------5-5-5-5-*|
D|*-0-0-0--0-0--7h8p7--10-10-10--0-0--7-*|-8-8-8-8-8-8-7-7--5-5-5-5--8-8--7-7-|*-0--0-0--0--0-0--0-5-5-5-5-*|
A|--0-0-0--0-0--7h8p7--10-10-10--0-0--7--|-8-8-8-8-8-8-7-7--5-5-5-5--8-8--7-7-|--0--0-0--0--0-0--0-3-3-3-3--|
D|--0-0-0--0-0--7h8p7--10-10-10--0-0--7--|-8-8-8-8-8-8-7-7--5-5-5-5--8-8--7-7-|--0--0-0--0--0-0--0----------|
          pm--|		  pm-|							  pm-|			

(Lead thing for second verse)(w/Dist)
D|-0---/3-2-0---/3-5-|
A|---3--------3------|

(Chorus)(w/o the last repeat measure)

(Interlude)

(Bridge)(w/Dist)
E|---------------------------------------------------------------------------------------|
B|---------------------------------------------------------------------------------------|
G|--------------------------------------------------------------------------------------*|
D|-7--0-0-0-0--7h8p7-10-10-10---7--8-8-8-8--7h8--5-5-5-5--7/9h108-8-8-8-7-/10-10-7-7-*|
A|-7--0-0-0-0--7h8p7-10-10-10---7--8-8-8-8--7h8--5-5-5-5--7/9h108-8-8-8-7-/10-10-7-7--|
D|-7--0-0-0-0--7h8p7-10-10-10---7--8-8-8-8--7h8--5-5-5-5--7/9h108-8-8-8-7-/10-10-7-7--|
	      	
(Chorus x3)(w/Dist)
E|----------------------------------------|------------------------------------|
B|----------------------------------------|------------------------------------|
G|*--------------------------------------*|------------------------------------|
D|*-0-0-0--0-0--7h8p7--10-10-10--0-0--7-*|-8-8-8-8-8-8-7-7--5-5-5-5--8-8--7-7-|	
A|--0-0-0--0-0--7h8p7--10-10-10--0-0--7--|-8-8-8-8-8-8-7-7--5-5-5-5--8-8--7-7-|
D|--0-0-0--0-0--7h8p7--10-10-10--0-0--7--|-8-8-8-8-8-8-7-7--5-5-5-5--8-8--7-7-|
          pm--|		  pm-|		

(End)(w/Dist)		
E|----------------|
B|----------------|
G|----------------|
D|-0--0-0--0--3-0-|
A|-0--0-0--0--3-0-|
D|-0--0-0--0--3-0-|
      pm-|	

I have reviewed this tab about a million times already and I think it is absolutely perfect, play it for yourself and see. Well any questions or comments Email me metallica007006005040302@yahoo.com RATE THIS PLEASE!!!	
Comments