Evanescence - Everybodys Fool Chords & Tabs

 

Everybodys Fool Chords & Tabs

Evanescence Chords & Tabs

Version: 1 Type: Bass Tab 0 ratings
1 star 2 stars 3 stars 4 stars 5 stars
comments

Everybodys Fool Bass Tab

   
Band- Evanescence
Song- Everybodys Fool

----------------

Tuning: Standard (E A D G)

--------------------------

Acoustic Intro:


G|----------------||
D|0000000000000000||
A|----------------||
E|----------------|| x3


Cue Electric Guitar Intro:


G|----------------||
D|----------------||
A|5~~~~~~~3~~~~~~~||
E|----------------||  x2


Verse:


G|----------------||
D|----------------||
A|5~~~~~~~3~~~~~~~||
E|----------------||  x4


Chorus:


G|----------------||
D|----------------||
A|5~~~~~~~3~~~~~~~||
E|----------------||  x2


G|----------------||
D|--------5~~~~~~~||
A|1~~~~~~~--------||
E|----------------||  x1


Chorus End:


G|----------------||
D|----------------||
A|5~~~~~3~5~~~~~3~||
E|----------------||  x1


Verse:

[ Tab from: http://www.guitartabs.cc/tabs/e/evanescence/everybodys_fool_btab.html ]
G|----------------||
D|----------------||
A|5~~~~~~~3~~~~~~~||
E|----------------||  x5


Chorus:


G|----------------||
D|----------------||
A|5~~~~~~~3~~~~~~~||
E|----------------||  x2


G|----------------||
D|--------5~~~~~~~||
A|1~~~~~~~--------|| 
E|----------------||  x1
 

Verse:


G|----------------||
D|----------------||
A|5~~~~~~~3~~~~~~~||
E|----------------||  x6


G|----------------||
D|--------8~~~~~~~||
A|1~~~~~~~--------||
E|----------------||  x1


Chorus: (play twice)


G|----------------||
D|----------------||
A|5~~~~~~~3~~~~~~~||
E|----------------||  x2


G|----------------||
D|--------8~~~~~~~||
A|1~~~~~~~--------||
E|----------------||  x1


Outro:


G|----------------||
D|----------------||
A|5~~~~~~~3~~~~~~~||
E|----------------||  x2


G|----------------||
D|--------8~~~~~~~||
A|1~~~~~~~--------||
E|----------------||  x1

G|--------||
D|--------||
A|5~~~~~~-||
E|--------||          x1
Comments