Evanescence - Even In Death Chords & Tabs

 

Even In Death Chords & Tabs

Evanescence Chords & Tabs

Version: 1 Type: Bass Tab 0 ratings
1 star 2 stars 3 stars 4 stars 5 stars
comments

Even In Death Bass Tab

   
Band- Evanescence
Song- Even In Death

Tuning: Full Step Down (A D G C F)

this is the completely version of this song

verses
F|--------------------------------------------------------||
C|--------------------------------------------------------||
G|--------------------------------------------------------||
D|-0-2-3----0-0-6-7---------------------------------------||
A|--------------------------------------------------------||

end verses(they took...)
F|--------------------------------------------------------||
C|--------------------------------------------------------||
G|--------------------------------------------------------||
D|-5-5-7-5-3--3/5-5----5/7--------------------------------||
A|--------------------------------------------------------||
[ Tab from: http://www.guitartabs.cc/tabs/e/evanescence/even_in_death_btab.html ]
1st chorus
F|--------------------------------------------------------||
C|--------------------------------------------------------||
G|-7~5~3~2~---7~5~3~2~------------------------------------||
D|--------------------------------------------------------||
A|--------------------------------------------------------||

repeat verses
repeat end verse

2nd chorus
F|--------------------------------------------------------||
C|--------------------------------------------------------||
G|-7~5~3~2~---7~5~3~2~---------------9/10-9~--------------||
D|-------------------------------3~5~---------------------||
A|--------------------------------------------------------||

1st solo(no bass)

outro
F|--------------------------------------------------------||
C|--------------------------------------------------------||
G|--------------------------------------------------------||
D|-0-0-7-8-7-5p7-0-0-7-8-7-5------------------------------||
A|--------------------------------------------------------||

2nd solo(no bass)

repeat 2nd chorus

end
F|--------------------------------------------------------||
C|--------------------------------------------------------||
G|--------------------------------------------------------||
D|-0~~~~~~~~~~~~~~~~--------------------------------------||
A|--------------------------------------------------------||
Comments