Evanescence - Bring Me To Life Chords & Tabs

 

Bring Me To Life Chords & Tabs

Evanescence Chords & Tabs

Version: 2 Type: Tab 1 rating
1 star 2 stars 3 stars 4 stars 5 stars
comments

Bring Me To Life Tab

e|-----------------|
B|-----------------|
G|-----------------|
D|-2-2--with-delay-|
A|-2-2--and-reverb-|
D|-2-2-------------|

Verse after Intro

e|---------------------------------------------------------|
B|---------------------------------------------------------|
G|---------------------------------------------------------| x2
D|-2-2--2-2---2-2--2-2---------2-2--2-2---2-2--2-2---------|
A|-2-2--2-2---2-2--2-2-----3---3-3--3-3---3-3--3-3-----3---|
D|-2-2--2-2---2-2--2-2-2-2-----2-2--2-2---2-2--2-2-2-2-----|

Chorus

e|-------------|
B|-------------|
G|-------------| x2
D|-2--7--7--2--|
A|-2--5--0--2--|
D|-2--5--0--2--|

Verse*

e|-----------------|
B|-----------------|
G|-----------------|
D|-2-2--2-2--------|
A|-2-2--2-2------3-|
D|-2-2--2-2--2-2---|

Verse

e|--------------------------------------------------------------------|
B|--------------------------------------------------------------------|
G|--------------------------------------------------------------------| x2
D|-2-2--2-2--2------2-2--2-2---------2-2--2-2--2------2-2--2-2--------|
A|-2-2--2-2--2------2-2--2-2-----3---3-3--3-3--3------3-3--3-3-----3--|
D|-2-2--2-2--2-2-2--2-2--2-2-2-2-----2-2--2-2--2-2-2--2-2--2-2-2-2----|
              (pm.)                             (pm.)

Chorus

e|-------------|
B|-------------|
G|-------------| x2
D|-2--7--7--2--|
A|-2--5--0--2--|
D|-2--5--0--2--|

Interlude
[ Tab from: http://www.guitartabs.cc/tabs/e/evanescence/bring_me_to_life_tab_ver_2.html ]
e|--------------------------------------------------------------------------|
B|--------------------------------------------------------------------------|
G|--------------------------------------------------------------------------|
D|-2-----------/4-----------2-2--2-2--2-2--2-2------2-2--2-2--2-2--2-2------|
A|-3-let ring--/5-let ring--2-2--2-2--2-2--2-2------2-2--2-2--2-2--2-2-----3|
D|-x------------x-----------2-2--2-2--2-2--2-2-2-2--2-2--2-2--2-2--2-2-2-2--|
                                              (pm.)			    
e|------------------------------------------------|
B|------------------------------------------------|
G|------------------------------------------------|
D|-2-----------/4-----------2-2--2-2--2-2--2-2----|
A|-3-let ring--/5-let ring--2-2--2-2--2-2--2-2----|
D|-x------------x-----------2-2--2-2--2-2--2-2-2-2|
                                              (pm.)

Bridge

e|----------------------------------------|
B|----------------------------------------|
G|----------------------------------------|
D|----------10--2--0--2--------10--2--0--2|
A|-------2--10--2--0--2-----2--10--2--0--2|
D|-2-4-5----10--2--0--2-4-5----10--2--0--2|

Verse

e|--------------------------------------------------------------------|
B|--------------------------------------------------------------------|
G|--------------------------------------------------------------------| x2
D|-2-2--2-2--2------2-2--2-2---------2-2--2-2--2------2-2--2-2--------|
A|-2-2--2-2--2------2-2--2-2-----3---3-3--3-3--3------3-3--3-3-----3--|
D|-2-2--2-2--2-2-2--2-2--2-2-2-2-----2-2--2-2--2-2-2--2-2--2-2-2-2----|
              (pm.)                             (pm.)

Chorus with variation

e|-------------------|
B|-------------------|
G|-------------------|
D|-2-7-7---/2-7-7-2--|
A|-2-5-0---/2-5-0-2--|
D|-2-5-0---/2-5-0-2--|

Interlude*

e|------------------------------------------------|
B|------------------------------------------------|
G|------------------------------------------------|
D|-2-----------4-----------2-2--2-2--2-2--2-2-----|
A|-3-let ring--5-let ring--2-2--2-2--2-2--2-2-----|
D|-x-----------x-----------2-2--2-2--2-2--2-2-2-2-|
                                             (pm.)

Bridge* + End

e|---------------------|
B|---------------------|
G|---------------------|
D|----------10---0---2-|
A|-------2--10---0---2-|
D|-2-4-5----10---0---2-|





Comments