Evanescence - Bring Me To Life Chords & Tabs

 

Bring Me To Life Chords & Tabs

Evanescence Chords & Tabs

Version: 12 Type: Tab 0 ratings
1 star 2 stars 3 stars 4 stars 5 stars
comments

Bring Me To Life Tab

Evanescence 
"Bring me to life"
Soundtrack of "Daredevil"
No problem but damn straight perfect! 

e------------------------ ------
b-----------------5------ ------
g-----4~-----4--5---4---- ------
d---2------2------------- --2---
a------------------------ --2---
d------------------------ --2...

verses
e-------------------------------------------------
b-------------------------------------------------
g-------------------------------------------------
d-------------------------------------------------
a--2-2--2-2--2-2--2-2--2-2--2-2--2-2--2-2------2--
d--2-2--2-2--2-2--2-2--2-2--2-2--2-2--2-2--2-2----

(Cont.)
e----------------------------------------------- ----------
b----------------------------------------------- ----------
g----------------------------------------------- ---9/11-11
d----------------------------------------------- -9--------
a--3-3--3-3--3-3--3-3--3-3--3-3--3-3--3-3------3 ----------
d--2-2--2-2--2-2--2-2--2-2--2-2--2-2--2-2--2-2-- ----------
					       tonite
[ Tab from: http://www.guitartabs.cc/tabs/e/evanescence/bring_me_to_life_tab_ver_12.html ]
Chorus
e-------------------------------------------------------------------
b-------------------------------------------------------------------
g-------------------------------------------------------------------
d--2--2--2-2-2-2--2--2----5--5--5-5-5-5--5--5----0--0--0-0-0-0--0-0-
a--2--2--2-2-2-2--2--2----5--5--5-5-5-5--5--5----0--0--0-0-0-0--0-0-
d--2--2--2-2-2-2--2--2----5--5--5-5-5-5--5--5----0--0--0-0-0-0--0-0-

(Cont.)
e-----------------------------
b-----------------------------
g-----------------------------
d--10--10--10-10-10-10--10--10
a--10--10--10-10-10-10--10--10
d--10--10--10-10-10-10--10--10 x2

Bridge
e------------------------------------------------------
b------------------------------------------------------
g-------------------------------------5-------4--------
d-------------------------------------5-------4-------2
a--2-2--2-2--3-3--3-3-----------2-----3-------2-------2
d--2-2--2-2--2-2--2-2--2--4--5------------------------2 x2

Ending
e--------------------------------------------------
b--------------------------------------------------
g--------------------------------------------------
d--------------------------------------------------
a--------------------/5----/7----/9-10-12-10-12----
d--3----/7----/10----------------------------------
Comments