Evanescence - Bring Me To Life Chords & Tabs

 

Bring Me To Life Chords & Tabs

Evanescence Chords & Tabs

Version: 3 Type: Chords 0 ratings
1 star 2 stars 3 stars 4 stars 5 stars
comments

Bring Me To Life Chords

   
Evanescence - "Bring Me To Life"
(Album: Fallen – 2003)

Intro: (Em -- C(9) --)> 1x

Em                        C(9)
How can you see into my eyes 
C(9)
like open doors
Em                        C(9)
Leading you down into my core 
C(9)
where I've become so numb.

E5 
Without a soul
C5
my spirit's sleeping somewhere cold 
E5                           C5
until you find it there and lead it back home.

E5      
(Wake me up)
             G5
Wake me up inside. 
(I can't wake up)
                D5
Wake me up inside. 
(Save me)
                  E5      A5   C5   E5
Call my name and save me from the dark. 
E5
(Wake me up)
               G5
Bid my blood to run. 
(I can't wake up) 
                 D5   
Before I come undone. 
(Save me)
                  E5      A5 C5   E5
Save me from the nothing I've become.

E5
Now that I know what I'm without
C5
you can't just leave me.
E5
Breathe into me and make me real
C5
Bring me to life.

CHORUS

C5    D5     E5 
Bring me to life. 
(I've been living a lie
There's nothing inside)

C5    D5     E5 
Bring me to life.

E5-F#5-G5-B5

A5       G5                 F#5
Frozen inside without your touch,
                E5-F#5-G5-B5
without your love, darling.
A5       G5                 F#5
Only you are the life among the dead.
[ Tab from: http://www.guitartabs.cc/tabs/e/evanescence/bring_me_to_life_crd_ver_3.html ]
E5 
(All of this sight
I can't believe I couldn't see
Kept in the dark
but you were there in front of me)
C5
I've been sleeping a thousand years it seems.
I've got to open my eyes to everything.
E5
(Without a thought…Without a voice…Without a soul)
(Don't let me die here
There must be something wrong)
C5
Bring me to life.

CHORUS

C5    D5     E5 
Bring me to life. 
(I've been living a lie
E5-F#5-G5-B5
There's nothing inside)
C5    D5     E5 
Bring me to life.

-----------------------------------------------------

obs:.Os parênteses colocados na letra indicam o backing vocal
(vocal masculino da Bring Me To Life)

>>> Tablaturas de trechos da música <<<

Intro : *Piano transcrito para a Guitarra*
  
     Em                    C(9) 
e|---7--5-7--8----12--7-----7--5-7--8----12--7--|
B|-5-----------------------5--------------------|
G|----------------------------------------------|
D|----------------------------------------------|
A|----------------------------------------------|
D|----------------------------------------------|

Versos 
    E5                               C5
e|---------------------------------------------------------------------------|
B|---------------------------------------------------------------------------|
G|---------------------------------------------------------------------------|
D|~~~2----2-2--2-2--2-2--2-2----2-2--2-2--2-2--2------2-3-3--3-3--3-3--3-3---|
A|~~~2----2-2--2-2--2-2--2-2----2-2--2-2--2-2--2------2-3-3--3-3--3-3--3-3---|
E|~~~0----0-0--0-0--0-0--0-0----0-0--0-0--0-0--0--0-0---0-0--0-0--0-0--0-0---|


Chorus      
  E5      G5      D5     E5 (A5->C5) 
E---------------------------------|
B---------------------------------|
G-7---------------7-----------2--5|
D-7-------5-------7-------2---2--5|
A-5-------5-------5-------2---0--3|
E-0-------3---------------0-------|

*Em e C(9) usados na intro e no verso inicial (sem distorção)*

  Em     C9
E--0------0---|
B--0------0---|
G--0------0---|
D--2------2---|
A--2------3---|
E--0----------|

eRiC’s Tabs . . . The Best songs  The Best Tabs 
Comments