Evanescence - Bring Me To Life Chords & Tabs

 

Bring Me To Life Chords & Tabs

Evanescence Chords & Tabs

Version: 4 Type: Bass Tab 0 ratings
1 star 2 stars 3 stars 4 stars 5 stars
comments

Bring Me To Life Bass Tab

   
I'm not sure with this one but I hope it satisfy those evanescence fans out there^^ (Metal Rulez)
Tuning:Standard Drop-D
(Chord Pattern)
G|---------------------|
D|---------------------|
A|---------------------|
D|---------------------|

Intro:
G|-W-|--------------------|
D|-A-|--------------------|
A|-I-|--------------------|
D|-T-|-XXXXX---XXXXX--XXXX|
                     

Verse 1:
G|-----------------------------------------|
D|*---------------------------------------*|
A|*3-33-33--33-33----3-3-33-33-33----33-33*|
D|----------------00--------------00-------|
     (with rythms)

Chorus:
G|----------------------|
D|*--------------------*|
A|*-7---10----5---7-\5-*|
D|----------------------|

Verse 2:
G|------------------|
D|------------------|
A|------------------|
D|-11-11-11-11--1-1-|
  (with rythms)


Bridge pt.1 :
[ Tab from: http://www.guitartabs.cc/tabs/e/evanescence/bring_me_to_life_btab_ver_4.html ]
G|--------------------------|--------------|
D|*-------------------------|-------------*|
A|*-3----5------------------|-------------*|
D|------------11-11-11-11-11|-11-11--11-11-|
			   ^|^1st time only.
                           ^go to pt.2 on repeat.
Bridge pt.2 :

F|------------------|---------------|---------------|
C|*-----------------|---------------|--------------*|
G|*7-9--10-13-15-\--|-/12-----12--\-|-/9-----9-\---*|
C|----------------5-|------11------5|------8----5---|
		     
Breakdown:

F|----------------|
C|*--------------*|
G|*--------------*|
C|-11-11-11-11-11-|
  (with rythms)

Final Chorus:

F|----------------------|----------------------|
C|----------------------|----------------------|
G|-7--10---5-------10\--|-7---10----5---7---\5-|
C|--------------------5-|----------------------|

Ending:

F|-----------------------------------------------------|
C|-----------------------------------------------------|
G|3-3-3-3-3--5-5-5-5-5-----------------7-9-10-13-15\---|
C|---------------------11-11-11-11-111--------------5--|

F|-------------------------------|
C|-------------------------------|
G|3-3-3-3-3--5-5-5-5-5-/-7--OUT--|
C|-------------------------------|
Comments