Evanescence - Bring Me To Life Chords & Tabs

 

Bring Me To Life Chords & Tabs

Evanescence Chords & Tabs

Version: 1 Type: Bass Tab 1 rating
1 star 2 stars 3 stars 4 stars 5 stars
comments

Bring Me To Life Bass Tab

"Bring Me To Life" by Evanescence

verses (bass comes in with guitar and drums,  or at "without a soul"):
G|--------------------------------------
D|--------------------------------------
A|--------------------------------------
E|-0-0--0-0--0-0--0-0------------------ pause after "bring it back..."

chorus:
G|------------------------------------------------------------------
D|------------------------------------------------------------------
A|---------------------------------5-5--5--5-5--5-5--7-----7-7-7-7-
E|-0-0--0--0-0--0--0-3-3--3--3-3--3-3-------------0-0---0-0--0----
[ Tab from: http://www.guitartabs.cc/tabs/e/evanescence/bring_me_to_life_btab.html ]
break (I've been living a lie)2x:
G|------------------------------------------------------------------
D|------------------------------------------------------------------
A|------------------------------------------------------------------
E|-3-3--3-3--3-3--3-3-3--2-2--2-2--2-2--2-2-2--0-0--0-0--0-0--0-0-0-

right after play:
E|-0--2--3--6--

then bridge (frozen inside without your touch):
G|--------------------------------------------------
D|--------------------------------------------------
A|-3--3-3-2--2-2--2--0--0--------------------------
E|------------------------0--2--3--6----------------

for "I've been sleeping 1000 years, it seems" play same as verses

i'm pretty sure about this. any questions email myimmortal5@hotmail.com.
Comments