Evan Dando - All My Life Chords & Tabs

 

All My Life Chords & Tabs

Evan Dando Chords & Tabs

Version: 1 Type: Tab 0 ratings
1 star 2 stars 3 stars 4 stars 5 stars
comments

All My Life Tab

Evan Danda
All my life
Album; baby i'm bored
Tabbed by mezz (stupid_teenager@hotmail.com)

-6--3--|-----|-------------|-6-|--3--3--3--3--|
-6--4--|-----|-------4-----|-6-|--3--3--3--3--|
-7--5--|-8-8-|-8-8-5-5-4-8-|-8-|--0--0--0--08-|
-8--5--|-8-8-|-8-8-5-5-6-8-|-8-|------------8-|
-6--3--|-6-5-|-6-5-3-3-6-5-|-6-|------------5-|
-x--x--|-x-6-|---6-----4-6-|---|-3--3--3--3-6-|
1.	2.    3.	    4.  5.

1.
Just look for sunshine, to be buring full time
1.
to be filled with hatred, for the time i've wasted
1.
and i'm so inpatient, for the time i've wasted
2.
god knows what i thought i'd do, i bit my own sweet heart in two
[ Tab from: http://www.guitartabs.cc/tabs/e/evan_dando/all_my_life_tab.html ]
CHORUS
3.
All my life thought i needed all the things i never need at all
3.  							    4.
All my life thought i needed all the things i never need at all

1.
Just hold my heart beat, in a box by my feet
1.
to be filled with glory, just speak a story
1.
can you feel the thunder, from the cloud i'm under
2. 
god knows how i'll get through, bit my own sweet heart and blew it

(CHORUS)
Bridge = 5.
(CHORUS)
 
If you have a second guitarist this is a little riff which is played at
various speeds in the chorus's ie slowly first chorus
then double speed second the rest of second guitar is all effects really
---6--6----6--6----3--3----3--3----------------------
------------------------------------4--4-----6--6----
--8--8--8-7--7--7-5--5--5-3--3--3--------------------
-8--8--8-8--8--8-5--5--5-5--5--5---6--6--6--8--8--8--
----------------------------------6--6--6--8--8--8---
-----------------------------------------------------
Comments