Eva Cassidy - Woodstock Chords & Tabs

 

Woodstock Chords & Tabs

Eva Cassidy Chords & Tabs

Version: 1 Type: Tab 0 ratings
1 star 2 stars 3 stars 4 stars 5 stars
comments

Woodstock Tab

   
EVA CASSIDY - WOODSTOCK
-----------------------

GUITAR TAB:

(Intro)

   Am              Dsus4

E -------------------------------|-----------------|-------------------------------|-----------------|
H -----1-----------3-------------|---1-----3---0-3-|--------0h1----------3---------|---1-----3-------|
G ---------2-----------0-------0-|---0-----2-------|-------------0-----------0-----|---0-----2-------|
D ------------2s4----------4-----|-----------------|-----2----------2s4----------4-|-----------------|
A -0-----------------------------|-0-----0---------|-0-----------------------------|-0-----0---------|
E -+-------+-------+-------+-----|-+---+---+---+---|-+-------+-------+-------+-----|-+---+---+---+---|

(Verse)

E -------------------------------|-------------------------------|---------2-------|-0-----0-----3---|
H -1---------------3-------------|-----1-----------3-------------|-3-----3-----3---|-----3-----3-----|
G ---------2-----------0-------0-|---------2-----------0-------0-|-----2-----2---2-|-----------------|
D -----2------2s4----------4-----|------------2s4----------2-----|---0-------------|-0---------------|
A -0-----------------------------|-0-----------------------------|-----------------|-----------------|
E -+-------+-------+-------+-----|-+-------+-------+-------+-----|-2---+---+---+---|-+---+---+---+---|

E -2-----2-----2---|-0-----0---------|-------------------------------|-----------------|
H -----3-----3---3-|-----3-----3---3-|-----------------3-------------|---1-----3-------|
G ---------2-------|-------------2---|---------2-----------0-------0-|---0-----2-------|
D -0---------------|-0---------------|-----2------2s4----------4-----|-----------------|
A -----------------|---------3-------|-0-----------------------------|-0-----0---------|
E -+---+---+---+---|-+---+---+---+---|-+-------+-------+-------+-----|-+---+---+---+---|
[ Tab from: http://www.guitartabs.cc/tabs/e/eva_cassidy/woodstock_tab.html ]
E -------------------------------|-------------------------------|---------2-------|-0-----0-----3---|
H -1---------------3-------------|-----------------3-------------|-3-----3-----3---|-----3-----3-----|
G -0-------2-----------0-------0-|---------2-----------0-------0-|-----2-----2---2-|---2-------------|
D -----2------2s4----------4-----|-----2------2s4----------2-----|---0-------------|-0-------0-------|
A -0-----------------------------|-0-----------------------------|-----------------|-----------------|
E -+-------+-------+-------+-----|-+-------+-------+-------+-----|-2---+---+---+---|-+---+---+---+---|

E -2-----0---------|-0---------------|-------------------------------|---0-0-0---------|
H -----3-------3---|-------3---3---3-|-----------------3-------------|---1-0-1---------|
G ---2-------2---2-|-----2-------2---|---------2-----------0-------0-|---0-------------|
D -0---------------|-0---------------|-----2------2s4----------4-----|-----------------|
A -----------------|---------3-------|-0-----------------------------|-0---------------|
E -+---+---+---+---|-+---+---+---+---|-+-------+-------+-------+-----|-+---+---+---+---|

(Refrain)

E -3-----2---------|-------------------------------|---------2-------|-----------------|
H -3---3-3---3-----|-----------------3-------------|-3-----3-----3---|-3-------1---3---|
G -2-2-----2-----2-|---------2-----------0---------|-----2-----2---2-|-----0---0---0---|
D -------------0---|-----2------2s4----------4-----|---0-------------|---4---4---2-----|
A -----------------|-0-----------------------------|-----------------|---------0-------|
E -+---+---+---+---|-+-------+-------+-------+---3-|-2---+---+---+---|-+---+---+---+---|


...


LYRICS:

(Verse)

I came upon a child of God
He was walking along the road
And I asked him "tell me where are you going"
This he told me

Said I'm going down to Yasgur's farm
Gonna join in a Rock'n'Roll band
Got to get back to the land
And get my soul free

(Chorus)

We are stardust
We're golden
And we've got to get ourselves
Back to the Garden

(Verse)

Can I walk along beside you
I have come here to lose the smog
And I feel like I'm a part
Of something turning round and round

And maybe it's the time of year
Maybe it's the time of man
And I don't know who I am
But life is for learning

(Chorus)

(Verse)

By the time we got to woodstock
We were half a million strong
And everywhere was the song
And the celebration

And I dreamed I saw the bomber jet planes
Riding shotgun in the sky
Turning into butterflies
Above our nation

(Refrain)

-----------------------------------------------------------
This is not the final version. If anyone has additions
or if the tab does not correspond with the original version
please feel free to let me know.

MarkusMauch@gmx.de
-----------------------------------------------------------
Comments