Eva Cassidy - Over The Rainbow Chords & Tabs

 

Over The Rainbow Chords & Tabs

Eva Cassidy Chords & Tabs

Version: 2 Type: Tab 0 ratings
1 star 2 stars 3 stars 4 stars 5 stars
comments

Over The Rainbow Tab

|---8-7---5-7-8---5-3---------------------------|
|-------8---------------6-5---3-5-6-3-----3-5---|
|-5-------------5-----2-----5---------4-5-----5-|
|-----------------------------------------------|
|-----------------------------------------------|
|-----------------------------------------------|
[ Tab from: http://www.guitartabs.cc/tabs/e/eva_cassidy/over_the_rainbow_tab_ver_2.html ]
|-3-0-3-0-3-0-3-0-3-1-3-1-3-1-3-1-5-5-3-0-3-0-3-|
|-----------------------------------------------|
|-----------------------------------------------|
|-----------------------------------------------|
|-----------------------------------------------|
|-----------------------------------------------|

|-0-3-2-5-2-5-2-5-2-5-7-7-10--------------------|
|-----------------------------------------------|
|-----------------------------------------------|
|-----------------------------------------------|
|-----------------------------------------------|
|-----------------------------------------------|

|---8-7---5-7-8---5-3---------------------------|
|-------8---------------6-5---3-5-6-3-----3-5---|
|-5-------------5-----2-----5---------4-5-----5-|
|-----------------------------------------------|
|-----------------------------------------------|
|-----------------------------------------------|
Comments