Eurythmics - Sweet Dreams Chords & Tabs

 

Sweet Dreams Chords & Tabs

Eurythmics Chords & Tabs

Version: 3 Type: Tab 0 ratings
1 star 2 stars 3 stars 4 stars 5 stars
comments

Sweet Dreams Tab

   
-------------------------------------------------------------------------------
			     Sweet Dreams - Eurythmics
-------------------------------------------------------------------------------
Tabbed by: Popcorn
Email: eldufo@hotmail.com

Tuning: Standard

This is for the original version of the song, not the Marilyn Manson cover.
I'm pretty sure it's mostly accurate.

MAIN RIFF
e|---------------------------------------------------------------------------|
B|---------------------------------------------------------------------------|
G|---------------------------------------------------------------------------|
D|---------------------------------------------------------------------------|
A|---------------------------------------------------------------------------|
E|x---x---5---5---8---8---5---5---1---1---3---5---0---3---3---5--------------|
[ Tab from: http://www.guitartabs.cc/tabs/e/eurythmics/sweet_dreams_tab_ver_3.html ]
BRIDGE 1
e|---------------------------------------------------------------------------|
B|-6-6-6-6-6-5-5-5-5-5-8-6-6-6-6-6-6-5-5-5-5-5-8-9---------------------------|
G|-6-6-6-6-6-5-5-5-5-5-8-6-6-6-6-6-6-5-5-5-5-5-8-9---------------------------|
D|-4-4-4-4-4-3-3-3-3-3-6-4-4-4-4-4-4-3-3-3-3-3-6-7---------------------------|
A|---------------------------------------------------------------------------|
E|---------------------------------------------------------------------------|

BRIDGE 2:
e|---------------------------------------------------------------------------|
B|---------------------------------------------------------------------------|
G|---------------------------------------------------------------------------|
D|7----9----10----12----14----16----17----19----19---------------------------|
A|7----9----10----12----14----16----17----19----19---------------------------|
E|5----7-----8----10----12----14----15----17----17---------------------------|

SOLO:
e|-5h7h8p7p5-3h5vvvvv----------------------3-55vvvvv-12-10-------------------|
B|--------------------1--3-5-1-----------5-----------------13-10-------------|
G|------------------------------2vvvvvvv-------------------------------------|
D|---------------------------------------------------------------------------|
A|---------------------------------------------------------------------------|
E|---------------------------------------------------------------------------|


| /  slide up
| \  slide down
| h  hammer-on
| p  pull-off
| ~  vibrato
| +  harmonic
| x  Mute note
===============================================================================
Comments