Eurythmics - Sweet Dreams Chords & Tabs

 

Sweet Dreams Chords & Tabs

Eurythmics Chords & Tabs

Version: 1 Type: Bass Tab 0 ratings
1 star 2 stars 3 stars 4 stars 5 stars
comments

Sweet Dreams Bass Tab

ok, this is my first tab and i hope its right so if anyone has any comments pm me.enjoy!
intro/ main riff
G --------------------------|
D ------1-------------------|
A -3--3---3-------3------3--|
E -----------4--4---3--3----|  x4
riff 2
G ------------------------------------------------------------------------|
D ---6-----6---6----5-----5---5----------------3-----3---3----6-----6---6-|
A ------------------------------3-3-3-3-3-3-------------------------------|
E -4---4-4---4----3---3-3---3----------------1---1-1---1----4---4-4---4---|
[ Tab from: http://www.guitartabs.cc/tabs/e/eurythmics/sweet_dreams_btab.html ]
G ---------------|
D ---5-----5---5-|
A ---------------|
E -3---3-3---3---| x1

Main Riff x8

Riff 2 x1

Main Riff x6

Riff 2 x1

Bridge
G -0----2----0----2----0----2----0----2--2-|
D -----------------------------------------|
A -----------------------------------------|
E -----------------------------------------|

Main Riff x8

Riff 2 x1

Bridge x1

Main Riff x3

Ending
G ---------------------------|
D ------1--------------------|
A -3--3---3--------3-------3-|
E -----------4---4---3---3---|

I didn't tab the whole thing out but the song basically repeats itself
Comments