Europe - Rock The Night Chords & Tabs

 

Rock The Night Chords & Tabs

Europe Chords & Tabs

Version: 1 Type: Bass Tab 0 ratings
1 star 2 stars 3 stars 4 stars 5 stars
comments

Rock The Night Bass Tab

   
Standard Tuning

G|--------------------------------------------------|
D|--------------------------------------------------|
A|-7-7-------3-5-5----------------------------------|
E|-----2-3-3-------3-5-5-5h3------------------------| x4

G|--------------------------------------------------|
D|--------------------------------------------------|
A|-3-333-333-333-333-333-333-333--5-7---------------|
E|--------------------------------------------------|

G|--------------------------------------------------------|
D|--------------------------------------------------------|
A|-7-7-7-7-5h7-7-7-7-5-3-333-33-----------5-555-555-555---|
E|-------------------------------3-333-33-----------------|

G|--------|
D|--------|
A|-3-5-7--|
E|--------|

G|--------------------------------------------------------|
D|--------------------------------------------------------|
A|-7-7-7-7-5h7-7-7-7-5-3-333-33-----------5-555-555-555---|
E|-------------------------------3-333-33-----------------|

G|-----|
D|-----|
A|-3-5-|
E|-----|

G|---------------------------------------------------|
D|---------------------------------------------------|
A|----------5-555-55-7-777-777-3-5----------5-555-55-|
E|-3-333-33------------------------3-333-33----------|

G|---------------------------------------|
D|---------------------------------------|
A|2-2-2-22-002-2-2-2-22-002--0-2-3-5-3-2-|
E|---------------------------------------|

G|--------------------------------------------------|
D|--------------------------------------------------|
A|-7-7-------3-5-5----------------------------------|
E|-----2-3-3-------3-5-5-5h3------------------------|

G|--------------------------------------------------|
D|--------------------------------------------------|
A|-7-7-------3-5-5---5-3-----5-3--------------------|
E|-----2-3-3-------3-----5-3-----5-3----------------|

G|--------------------------------------------------|
D|--------------------------------------------------|
A|-7-7-------3-5-5----------------------------------|
E|-----2-3-3-------3-5-5-5h3------------------------|

G|--------------------------------------------------|
D|--------------------------------------------------|
A|-7-7-------3-5-5---5-3-----5-3--------------------|
E|-----2-3-3-------3-----5-3-----5-3----------------|

G|--------------------------------------------------|
D|--------------------------------------------------|
A|-3-333-333-333-333-333-333-333--5-7---------------|
E|--------------------------------------------------|

G|--------------------------------------------------------|
D|--------------------------------------------------------|
A|-7-7-7-7-5h7-7-7-7-5-3-333-33-----------5-555-555-555---|
E|-------------------------------3-333-33-----------------|

G|--------|
D|--------|
A|-3-5-7--|
E|--------|

G|--------------------------------------------------------|
D|--------------------------------------------------------|
A|-7-7-7-7-5h7-7-7-7-5-3-333-33-----------5-555-555-555---|
E|-------------------------------3-333-33-----------------|

G|-----|
D|-----|
A|-3-5-|
E|-----|

G|---------------------------------------------------|
D|---------------------------------------------------|
A|----------5-555-55-7-777-777-3-5----------5-555-55-|
E|-3-333-33------------------------3-333-33----------|

G|---------------------------------------|
D|---------------------------------------|
A|2-2-2-22-002-2-2-2-22-002--0-2-3-5-3-2-|
E|---------------------------------------|

G|--------------------------------------------------|
D|--------------------------------------------------|
A|-7-7-------3-5-5----------------------------------|
E|-----2-3-3-------3-5-5-5h3------------------------|

G|--------------------------------------------------|
D|--------------------------------------------------|
A|-7-7-------3-5-5---5-3-----5-3--------------------|
E|-----2-3-3-------3-----5-3-----5-3----------------|

G|--------------------------------------------------|
D|--------------------------------------------------|
A|-7-7-------3-5-5----------------------------------|
E|-----2-3-3-------3-5-5-5h3------------------------|
[ Tab from: http://www.guitartabs.cc/tabs/e/europe/rock_the_night_btab.html ]
G|--------------------------------------------------|
D|--------------------------------------------------|
A|-7-7-------3-5-5---5-3-----5-3--------------------|
E|-----2-3-3-------3-----5-3-----5-3----------------|

G|-9999-999-9--|
D|-------------|
A|-------------|
E|-------------|

1st guitar solo bass plays
G|--------------------------------------------------|
D|--------------------------------------------------|
A|-7-7-------3-5-5----------------------------------|
E|-----2-3-3-------3-5-5-5h3------------------------|

G|--------------------------------------------------|
D|--------------------------------------------------|
A|-7-7-------3-5-5---5-3-----5-3--------------------|
E|-----2-3-3-------3-----5-3-----5-3----------------|

G|--------------------------------------------------|
D|--------------------------------------------------|
A|-7-7-------3-5-5----------------------------------|
E|-----2-3-3-------3-5-5-5h3------------------------|

G|--------------------------------------------------|
D|--------------------------------------------------|
A|-7-7-------3-5-5---5-3-----5-3--------------------|
E|-----2-3-3-------3-----5-3-----5-3----------------|

end solo

G|---------------------------------------------------|
D|---------------------------------------------------|
A|----------5-555-55-7-777-777-3-5----------5-555-55-|
E|-3-333-33------------------------3-333-33----------|

G|---------------------------------------|
D|---------------------------------------|
A|2-2-2-22-002-2-2-2-22-002--0-2-3-5-3-2-|
E|---------------------------------------|

G|--------------------------------------------------|
D|--------------------------------------------------|
A|-7-7-------3-5-5----------------------------------|
E|-----2-3-3-------3-5-5-5h3------------------------|

G|--------------------------------------------------|
D|--------------------------------------------------|
A|-7-7-------3-5-5---5-3-----5-3--------------------|
E|-----2-3-3-------3-----5-3-----5-3----------------|

G|--------------------------------------------------|
D|--------------------------------------------------|
A|-7-7-------3-5-5----------------------------------|
E|-----2-3-3-------3-5-5-5h3------------------------|

G|--------------------------------------------------|
D|--------------------------------------------------|
A|-7-7-------3-5-5---5-3-----5-3--------------------|
E|-----2-3-3-------3-----5-3-----5-3----------------|

2nd guitar solo bass plays
G|---------------------------------------------------|
D|---------------------------------------------------|
A|-7-777-777-777-77-5-555-55-2-222-22----------------|
E|---------------------------------------------------|

G|---------------------------------------------------|
D|---------------------------------------------------|
A|-7-777-777-777-77----------5-555-55----------------|
E|------------------3-333-33-------------------------|

G|---------------------------------------------------|
D|---------------------------------------------------|
A|-7-777-777-777-77-5-555-55-2-222-22----------------|
E|---------------------------------------------------|

G|---------------------------------------------------|
D|---------------------------------------------------|
A|-7-777-777-777-77----------5-555-55----------------|
E|------------------3-333-33-------------------------|

end solo

G|--------------------------------------------------|
D|--------------------------------------------------|
A|-7-7-------3-5-5----------------------------------|
E|-----2-3-3-------3-5-5-5h3------------------------|

G|--------------------------------------------------|
D|--------------------------------------------------|
A|-7-7-------3-5-5---5-3-----5-3--------------------|
E|-----2-3-3-------3-----5-3-----5-3----------------|

G|--------------------------------------------------|
D|--------------------------------------------------|
A|-7-7-------3-5-5----------------------------------|
E|-----2-3-3-------3-5-5-5h3------------------------|

G|--------------------------------------------------|
D|--------------------------------------------------|
A|-7-7-------3-5-5---5-3-----5-3--------------------|
E|-----2-3-3-------3-----5-3-----5-3----------------|

G|----------------------||
D|----------------------||
A|-7-7-7-7-7-7-7-7--5-7-||
E|----------------------||
Comments