Europe - Open Your Heart Chords & Tabs

 

Open Your Heart Chords & Tabs

Europe Chords & Tabs

Version: 2 Type: Tab 0 ratings
1 star 2 stars 3 stars 4 stars 5 stars
comments

Open Your Heart Tab

Artist: Europe
Song: Open Your Heart
Tabbed By: Aydan Watkins

Ok guys here's the tab for one of Europes greatest songs. It's pretty good and of 
it still needs lots of work. Please don't forget to rate! :D

Intro/Verses
[ Tab from: http://www.guitartabs.cc/tabs/e/europe/open_your_heart_tab_ver_2.html ]
E--7-----7-----7---10-----10-----7-----7-----5-----5-------------|
B----7-----7-----7----7------7-----8-----8-----5-----5-----------|
G------7-----7----------7------7-----9-----9-----6-----6---------|
D----------------------------------------------------------------|
A----------------------------------------------------------------|
E----------------------------------------------------------------|

Chorus:

E-----------------------|
B-----------------------|
G--4-----------7--7--2--|
D--4--4--5--5--7--7--2--|
A--2--4--5--5--5--5--0--|
E-----2--3--3-----------|

Then...

E---------------------------|
B---------------------------|
G--4------------------------|
D--4--4--5--5-/-2--4--5--7--|
A--2--4--5--5-/-2--4--5--7--|
E-----2--3--3-/-0--2--3--5--|
Comments