Euphoria - Untitled Chords & Tabs

 

Untitled Chords & Tabs

Euphoria Chords & Tabs

Version: 1 Type: Bass Tab 0 ratings
1 star 2 stars 3 stars 4 stars 5 stars
comments

Untitled Bass Tab

euphoria - un-titled
Tabbed By: R.J. Bennett
EMail: Sk8erdude115@aol.com


song:un-titled
Band:Uuphoria
Album:Not Here


Intro
g------------------------------------------/
d-------------------------------------------/
a-------------------------------------------/
e--0---0----0----0----0---0----0-----0-----/

Verse
g-----------------------------------------/
d-----------------------------------------/
a-0-0-0-0-0-2--222222---------------------/
e---------------------0-0-0-0-0>3-0>3-0>3-/
[ Tab from: http://www.guitartabs.cc/tabs/e/euphoria/untitled_btab.html ]
Chorse
g------------------------------------------/
d-------------------------------------------/
a-------------------------------------------/
e--0---0----0----0----0---0----0-----0-----/

solo/outro
g-------------------------------/
d-------------------------------/
a-------------------------------/
e---0----0-----0------2---------/--goes--
into
verse
chorse
verse
chours
solo
outro

this song is easy to play and i love th group there always playing in mooresville Nc
and i can wait to see then again !Punk On!


written and tabed by rj Bennett
Comments