Etic - This Summer Chords & Tabs

 

This Summer Chords & Tabs

Etic Chords & Tabs

Version: 1 Type: Tab 0 ratings
1 star 2 stars 3 stars 4 stars 5 stars
comments

This Summer Tab

Band:ETIC
Song:This Summer
Album:Grip-Tape
Instrument:Guitar 1

Guitar 1(Yaman):Intro
E-----------------------------------
B-----------------------------------
G---7----4------2-----------------
D---7-----4------2----5-5-5-5-5        1X
A---5-----2------0----5-5-5-5-5
E-----------------------3-3-3-3-3

E--------------------------------------------------------------------
B--------------------------------------------------------------------
G---7-7-7-7-7----4-4-4-4-4-----2-2-2-2-2------------------
D---7-7-7-7-7----4-4-4-4-4-----2-2-2-2-2------5-5-5-5-5    2X
A---5-5-5-5-5----2-2-2-2-2-----0-0-0-0-0------5-5-5-5-5
E--------------------------------------------------------3-3-3-3-3

Guitar 1(Yaman):Verse 1


E--------------------------------------------------------------------
B--------------------------------------------------------------------
G---7-7-7-7-7----4-4-4-4-4-----2-2-2-2-2------------------
D---7-7-7-7-7----4-4-4-4-4-----2-2-2-2-2------5-5-5-5-5   2X
A---5-5-5-5-5----2-2-2-2-2-----0-0-0-0-0------5-5-5-5-5
E--------------------------------------------------------3-3-3-3-3

Guitar 1(Yaman):Bridge 1

E-----------------------------------
B-----------------------------------
G---7----4------2-----------------
D---7-----4------2----5-5-5-5-5        1X
A---5-----2------0----5-5-5-5-5
E-----------------------3-3-3-3-3

Guitar 1(Yaman):Chorus 1
E--------------------------------------------------------------------
B--------------------------------------------------------------------
G---7-7-7-7-7----4-4-4-4-4-----2-2-2-2-2------------------
D---7-7-7-7-7----4-4-4-4-4-----2-2-2-2-2------5-5-5-5-5   2X
A---5-5-5-5-5----2-2-2-2-2-----0-0-0-0-0------5-5-5-5-5
E--------------------------------------------------------3-3-3-3-3
[ Tab from: http://www.guitartabs.cc/tabs/e/etic/this_summer_tab.html ]
Guitar 1(Yaman):Intro 2
E--------------------------------------------------------------------
B--------------------------------------------------------------------
G---7-7-7-7-7----4-4-4-4-4-----2-2-2-2-2------------------
D---7-7-7-7-7----4-4-4-4-4-----2-2-2-2-2------5-5-5-5-5    2X
A---5-5-5-5-5----2-2-2-2-2-----0-0-0-0-0------5-5-5-5-5
E--------------------------------------------------------3-3-3-3-3
Guitar 1(Yaman):Verse 2
E--------------------------------------------------------------------
B--------------------------------------------------------------------
G---7-7-7-7-7----4-4-4-4-4-----2-2-2-2-2------------------
D---7-7-7-7-7----4-4-4-4-4-----2-2-2-2-2------5-5-5-5-5   1X
A---5-5-5-5-5----2-2-2-2-2-----0-0-0-0-0------5-5-5-5-5
E--------------------------------------------------------3-3-3-3-3

Guitar 1(Yaman):Verse 2
E----------------------------------------------------------------------------------------------------------------------
B---------------------------------------------------------------------------------------------------------------------
G---7-7-7-7-7-----9-9-9-9-9-----11-11-11-11-11-------12-12-12-12-12--------11-11-11-11-11
D---x-x-x-x-x-----x-x-x-x-x------x-x-x-x-x-x-x-x-------x-x-x-x-x-x-x-x---------x-x-x-x-x-x-x-x x1
A---5-5-5-5-5-----7-7-7-7-7------9---9--9---9---9--------10-10-10-10-10---------9---9---9---9---9
E----------------------------------------------------------------------------------------------------------------------

E-----------------------------------
B-----------------------------------
G---7----4------2-----------------
D---7-----4------2----5-5-5-5-5        1X
A---5-----2------0----5-5-5-5-5
E-----------------------3-3-3-3-3

Guitar 1(Yaman):Chorus 2
E--------------------------------------------------------------------
B--------------------------------------------------------------------
G---7-7-7-7-7----4-4-4-4-4-----2-2-2-2-2------------------
D---7-7-7-7-7----4-4-4-4-4-----2-2-2-2-2------5-5-5-5-5   2X
A---5-5-5-5-5----2-2-2-2-2-----0-0-0-0-0------5-5-5-5-5
E--------------------------------------------------------3-3-3-3-3

Guitar 1(Yaman):Interlude
E----2---2------------3--------
B----3---3-------3---3--------
G----2---4-------3---0--------
D---------4-------3---0--------
A---------2-------0---2--------
E---------2------------3--------
Guitar 1 (Yaman):Outro
E--------------------------------------------------------------------
B--------------------------------------------------------------------
G---7-7-7-7-7----4-4-4-4-4-----2-2-2-2-2------------------
D---7-7-7-7-7----4-4-4-4-4-----2-2-2-2-2------5-5-5-5-5   2X
A---5-5-5-5-5----2-2-2-2-2-----0-0-0-0-0------5-5-5-5-5
E--------------------------------------------------------3-3-3-3-3

E-----------------------------------
B-----------------------------------
G---7----4------2-----------------
D---7-----4------2----5-5-5-5-5        1X
A---5-----2------0----5-5-5-5-5
E-----------------------3-3-3-3-3
Comments