Eternal Decision - Hunger Chords & Tabs

 

Hunger Chords & Tabs

Eternal Decision Chords & Tabs

Version: 1 Type: Tab 0 ratings
1 star 2 stars 3 stars 4 stars 5 stars
comments

Hunger Tab

Eternal Decision - Hunger


This is the intro riff.

D|--7---3---2---------7--10---9--9--9--10---9---------------------
A|--5---1---0--3-/-7--5--8----7--7--7---8---7-------just repeat---
E|--5---1---0--1-/-5--5--8----7--7--7---8---7---------------------
 
Here is the flange part.
[ Tab from: http://www.guitartabs.cc/tabs/e/eternal_decision/hunger_tab.html ]
e|---------------------------------------0-------------
B|-----------------------------0------------0----------
G|-----------2h3--3---------------3-------------3------
D|-------0-------------0--0---------0--------------0---
A|---5-------------------------------------------------
E|-----------------------------------------------------
 
e|-----------------------------------------------------
B|-------------------------0---------------------------
G|-----------2h3--3-----------3------------2-----------
D|-------0------------0--0--------0-----0------0-------
A|---5-------------------------------3------------5----
E|-----------------------------------------------------
Comments