Et Dc - Ets L??t Chords & Tabs

 

Ets L??t Chords & Tabs

Et Dc Chords & Tabs

Version: 1 Type: Tab 0 ratings
1 star 2 stars 3 stars 4 stars 5 stars
comments

Ets L??t Tab

Artist : ET/DC
Song : Ets Låt
Date : ?????
Special Features : ?????	
Tuning : ??????

Main Guitar Line: w/Distortion
E --1-1-1------5-5------7-7------------
B --3-3-3------7-7------9-9------------
G -------------------------------------
D -------------------------------------
A -------------------------------------
D -------------------------------------
SOLO:

E ----1-1-1-1-1-1-1-/-5-1-1-1-1-1-1-1--
B -------------------------------------
G -------------------------------------
D -------------------------------------
A -------------------------------------
D -------------------------------------
[ Tab from: http://www.guitartabs.cc/tabs/e/et_dc/ets_lt_tab.html ]
INTRO/OUTRO (extremly fast) 
E -0-1-2-3-4-5-6-7-8-9--------------------------------------------------------------------------------
B ----------------------------0-1-2-3-4-5-6-7-8-9-----------------------------------------------------
G ------------------------------------------------------0-1-2-3-4-5-6-7-8-9---------------------------
D --------------------------------------------------------------------------------0-1-2-3-4-5-6-7-8-9-
A ----------------------------------------------------------------------------------------------------
D ----------------------------------------------------------------------------------------------------
Repeat 2 times 

SOLO 2 (very fast)
E -------1-1-1-1-1-1-1-1-------------------------------------------------------------------------
B ------------------------------2-2-2-2-2-2-2-2--------------------------------------------------
G ----------------------------------------------------3-3-3-3-3-3-3-3----------------------------
D ------------------------------------------------------------------------------4-4-4-4-4-4-4-4-4
A -----------------------------------------------------------------------------------------------
D -----------------------------------------------------------------------------------------------

Song Order:
Intro
Main
                                                                                                               Solo
Main
Solo 2
Outro
Comments