Estra - Hanabel Chords & Tabs

 

Hanabel Chords & Tabs

Estra Chords & Tabs

Version: 1 Type: Tab 0 ratings
1 star 2 stars 3 stars 4 stars 5 stars
comments

Hanabel Tab

------0------3-----2-----1-----------------|
------1------3-----0-----1-----------------|
------0------0-----0-----2-----------------|
------2------0-----2-----3-----------------|
------3------2-----2-----3-----------------|
------x------3-----0-----1-----------------|

  SECONDA CHITARRA:(distorto dall' inizio alla fine)
------------------------------------------|
------------------------------------------|
------------------------------------------|
------------------------------------------|
-----3------6-3-6-5-----------------------| x2
------------------------------------------|
POWER CRD:
------------------------------------------|
------------------------------------------|
----5-------------------------------------|
----5---5---2---3-------------------------|
----3---5---2---3-------------------------|
--------3-------1-------------------------|
[ Tab from: http://www.guitartabs.cc/tabs/e/estra/hanabel_tab.html ]
------------------------------------------|
------------------------------------------|
------------------------------------------|
------------------------------------------|
-----3------6-3-6-5-----------------------| x2
------------------------------------------|

  QUESTA E' LA PARTE IN CUI LA CANZONE ACCELERA:

------------------------------------------|
------------------------------------------|
-----5---7---8-------5--------------------| x4
-----5---7---8---8---5--------------------|
-----3---5---6---8---3--------------------|
-----------------6------------------------|
DOPO LA CANZONE RIPARTE CON IL RITORNELLO LENTO:

-----------------------------------------
-----------------------------------------
-----5-----------------------------------
-----5---5---2---3-----------------------
-----3---5---2---3-----------------------
---------3-------1-----------------------

 ALLA FINE SI CONCLUDE CON LA PRIMA CHITARRA CHE SUONA GLI ACCORDI PULITI:
------0------3-----2-----1----------------|
-----1------3-----0-----1-----------------|
-----0------0-----0-----2-----------------|
-----2------0-----2-----3-----------------|
-----3------2-----2-----3-----------------|
-----x------3-----0-----1-----------------|

CREDO DI AVER SCRITTO IL TABULATO CORRET TAMENTE, PER QUALSIASI DOMANDA, CHIARIMENTO,
O CORREZIONE CONTATTATEMI AL INDIRIZZO:

GROG182@HOTMAIL.COM
Comments